.  . 
"Vermilion" - Slipknot - :::RockBy.Net:::, , >>> Slipknot >>> Vermilion

"Vermilion"
"Slipknot"

			 Slipknot - Vermilion - Vol. 3:The Subliminal Verses

Tabbed by Elvisz(elvisz@kornkids.com)

This song is hard to figure out but i think it sounds real close, if you're
looking for the solo sorry can't help you with that(i'm not to good in that
stuff); Try my tab i think it's worth it! :)
Tuning drop D;
(soory i didn't mark what part you have to repeat how many time, but it's
3 o clock in the midnight.....)
Listen to the song and it comes out real clean and easy...
peace!

Intro:
|--------12~~11~~-|
|-9~~11~~---------|
|-----------------|	(Guitar1)
|-----------------|
|-----------------|
|-----------------|

|------------------------------------|--------------|
|------------------------------------|--------------|
|------------------------------------|-55/7733333-|	(Guitar2)
|-6-66-8-88-9-99-8-888888-888-888888-|-xxxxxxxxxxxx-|
|-x-xx-x-xx-x-xx-x-xxxxxx-xxx-xxxxxx-|-22/5511111-|
|-6-66-8-88-9-99-8-888888-888-888888-|--------------|
    ..   ..   ..   ......     ......                  .palm mute
 
Fill1:
|------------------------------------|-----------------|
|------------------------------------|-----------------|
|------------------------------------|-55/77/99/111111-|	(Guitar2)
|-6-66-8-88-9-99-8-888888-888-888888-|-xxxxxxxxxxxxxxx-|
|-x-xx-x-xx-x-xx-x-xxxxxx-xxx-xxxxxx-|-22/55/77/ 9 9 9-|
|-6-66-8-88-9-99-8-888888-888-888888-|-----------------|
    ..   ..   ..   ......     ......                   .palm mute

Verse1:
|--------12~~11~~-|
|-9~~11~~---------|
|-----------------|	(Guitar1)
|-----------------|
|-----------------|
|-----------------|

|------------------------------------|--------------|
|------------------------------------|--------------|
|------------------------------------|-55/7733333-|	(Guitar2)
|-6-66-8-88-9-99-8-888888-888-888888-|-xxxxxxxxxxxx-|
|-x-xx-x-xx-x-xx-x-xxxxxx-xxx-xxxxxx-|-22/5511111-|
|-6-66-8-88-9-99-8-888888-888-888888-|--------------|
    ..   ..   ..   ......     ......                  .palm mute
 
Fill1:
|------------------------------------|-----------------|
|------------------------------------|-----------------|
|------------------------------------|-55/77/99/111111-|	(Guitar2)
|-6-66-8-88-9-99-8-888888-888-888888-|-xxxxxxxxxxxxxxx-|
|-x-xx-x-xx-x-xx-x-xxxxxx-xxx-xxxxxx-|-22/55/77/ 9 9 9-|
|-6-66-8-88-9-99-8-888888-888-888888-|-----------------|
    ..   ..   ..   ......     ......                   .palm mute

Pre-Verse:
|-----------|---|-------------------|
|-----------|---|-------------------|
|-----------|---|-------------------|	(Guitar1)
|-2~~2~6~~6~|0~5|0~0~1~1~0~0~6665~~-|
|-2~~2~6~~6~|0~5|0~0~1~1~0~0~6665~~-|
|-2~~2~6~~6~|0~5|0~0~1~1~0~0~6665~~-|

|-----------|---|-------------------|
|-----------|---|-------------------|
|-----------|---|-------------------|	(Guitar2)
|-2222266666|0~5|0~0~1~1~0~0~6665~~-|
|-xxxxxxxxxx|0~5|0~0~1~1~0~0~6665~~-|
|-2222266666|0~5|0~0~1~1~0~0~6665~~-|

Verse2:
|--------------|
|--------------|
|-7777733333-|	(Guitar2)
|-xxxxxxxxxxxx-|
|-5555511111-|
|--------------|

Verse3:
|---------------------------------|
|---------------------------------|
|--------------9-9-9-8-8-8--------|	(Guitar1))
|--6-6-6-8-8-8------------6688999-|
|---------------------------------|
|---------------------------------|

|--------------|
|--------------|
|-7777733333-|	(Guitar2)
|-xxxxxxxxxxxx-|
|-5555511111-|
|--------------|

Fill2:
|--------------|
|--------------|
|-77/99/111111-|	(Guitar2)
|-xxxxxxxxxxxx-|
|-55/77/ 9 9 9-|
|--------------|

Pre-Verse:
|-----------|---|-------------------|
|-----------|---|-------------------|
|-----------|---|-------------------|	(Guitar1)
|-2~~2~6~~6~|0~5|0~0~1~1~0~0~6665~~-|
|-2~~2~6~~6~|0~5|0~0~1~1~0~0~6665~~-|
|-2~~2~6~~6~|0~5|0~0~1~1~0~0~6665~~-|

|-----------|---|-------------------|
|-----------|---|-------------------|
|-----------|---|-------------------|	(Guitar2)
|-2222266666|0~5|0~0~1~1~0~0~6665~~-|
|-xxxxxxxxxx|0~5|0~0~1~1~0~0~6665~~-|
|-2222266666|0~5|0~0~1~1~0~0~6665~~-|

Bridge1:(Guitar1 & Guitar2)
|-------------------------------------|
|-------------------------------------|
|-54------54------------------------|
|-xxx------xxx------------------------|
|-32------32------32------65------|
|-----0000-----0101-32-0000-65-6666-|
      ....     ....     ....     ....   .palm mute

|-------------------------------------|
|-------------------------------------|
|-54------54------------------------|
|-xxx------xxx------------------------|
|-32------32------5/7------5/8------|
|-----0000-----0101-5/7-0000-5/8-6666-|
      ....     ....     ....     ....   .palm mute

Chorus:
(Guitar2)
|---------------------------------------------------------------------------------|
|---------------------------------------------------------------------------------|
|-444444/666666/121212121212999999111111111111777777/11111111111111999/111111-|
|-xxxxxxxxxxxxxxxxxxxxxxxxxxxxxxxxxxxxxxxxxxxxxxxxxxxxxxxxxxxxxxxxxxxxxxxxxxxxxxx-|
|-222222/444444/101010101010777777/ 9 9 9 9 9 9555555/ 9 9 9 9 9 9 9777/ 9 9 9-|
|---------------------------------------------------------------------------------|

|----------------------|--------|--------|
|----------------------|--------|--------|
|----------------------|--------|--------|	(Guitar1)
|-9~9999-7~9~7~-2~2222-|-5~5555-|-5~4~2~-|
|-9~9999-7~9~7~-2~2222-|-5~5555-|-5~4~2~-|
|-9~9999-7~9~7~-2~2222-|-5~5555-|-5~4~2~-|
                        ^first    ^third
                        & second  & fourth 
                         ending    ending               

Bridge2:
|----------|
|----------|
|-54------|	(Guitar1)
|-xxx------|
|-32------|
|-----0000-|
      ....   .palm mute

Bridge3:(Guitar2 does the solo, but i'm really bad in these stuff so i'll 
skip it;)
|--------------|---------------|
|--------------|---------------|
|-54----------|---------------|	(Guitar1)
|-xxx----------|-2-2222-3-3333-|
|-32----------|-2-2222-3-3333-|
|-----00000000-|-2-2222-3-3333-|
      ........                   .palm mute

Bridge4(same as bridge1):(Guitar1 & Guitar2)
|-------------------------------------|
|-------------------------------------|
|-54------54------------------------|
|-xxx------xxx------------------------|
|-32------32------32------65------|
|-----0000-----0101-32-0000-65-6666-|
      ....     ....     ....     ....   .palm mute

|-------------------------------------|
|-------------------------------------|
|-54------54------------------------|
|-xxx------xxx------------------------|
|-32------32------5/7------5/8------|
|-----0000-----0101-5/7-0000-5/8-6666-|
      ....     ....     ....     ....   .palm mute

Chorus:
(Guitar2)
|---------------------------------------------------------------------------------|
|---------------------------------------------------------------------------------|
|-444444/666666/121212121212999999111111111111777777/11111111111111999/111111-|
|-xxxxxxxxxxxxxxxxxxxxxxxxxxxxxxxxxxxxxxxxxxxxxxxxxxxxxxxxxxxxxxxxxxxxxxxxxxxxxxx-|
|-222222/444444/101010101010777777/ 9 9 9 9 9 9555555/ 9 9 9 9 9 9 9777/ 9 9 9-|
|---------------------------------------------------------------------------------|

|----------------------|--------|--------|
|----------------------|--------|--------|
|----------------------|--------|--------|	(Guitar1)
|-9~9999-7~9~7~-2~2222-|-5~5555-|-5~4~2~-|
|-9~9999-7~9~7~-2~2222-|-5~5555-|-5~4~2~-|
|-9~9999-7~9~7~-2~2222-|-5~5555-|-5~4~2~-|
                        ^first    ^third
                        & second  & fourth 
                         ending    ending       

Outro:
(Guitar2)
|---------------------------------------------------------------------------------|
|---------------------------------------------------------------------------------|
|-444444/666666/121212121212999999111111111111777777/11111111111111999/111111-|
|-xxxxxxxxxxxxxxxxxxxxxxxxxxxxxxxxxxxxxxxxxxxxxxxxxxxxxxxxxxxxxxxxxxxxxxxxxxxxxxx-|
|-222222/444444/101010101010777777/ 9 9 9 9 9 9555555/ 9 9 9 9 9 9 9777/ 9 9 9-|
|---------------------------------------------------------------------------------|

|----------------------------|
|----------------------------|
|----------------------------|	(Guitar1)
|-9~9999-7~9~7~-2~2222-764-|
|-xxxxxx-xxxxxx-xxxxxx-xxxxx-|
|-9~9999-7~9~7~-2~2222-542-|

    :
      : !!!
      URL - http://akkordbard.ru/, -
0.047344923019409