.  . 
"Vermilion" - Slipknot - :::RockBy.Net:::, , >>> Slipknot >>> Vermilion

"Vermilion"
"Slipknot"

			 ---------------------------------------|
                 vermillion- slipknot--|
Tabbed by:kyle
Email:

Tuning:drop it down three flats then drop G#

e|--------------------------------------------------------------------------|
B|--------------------------------------------------------------------------|
G|--4--4--4-----6-------0------------4-4-4-4-0-0-0-0-0-0--7---6-6---7-7-7---|
D|--4--4--4---------------------4----4-4-4-4-0-0-0-0-0-0--0-/-0-0-/-0-0-0---|
A|--2--2--2---------2-------2--------2-2-2-2-0-0-0-0-0-0--5---4-4---5-5-5---|
E|--------------------------------------------------------0---0-0---5-5-5---|
                          play as many times as nessesary
e|-------------0--------------------0-----------------0------------0--------|
B|--------6------6-------------6-------6---------6------6-------6----6------|
G|----------7-------7-------------7-------7---------7-----7-------7----7----|
D|--------------------------------------------------------------------------|
A|---------------------------------------------5--------------8-------------|
E|----8--------------------7------------------------------------------------|        
this when corey sings   "wont let this build up inside of me "

e|--------------12---10-----------------------------------------------------|
B|------11--12--------------------------------------------------------------|
G|--------------------------------------------------------------------------|
D|--------------------------------------------------------------------------|
A|--------------------------------------------------------------------------|
E|---0-rings through--------------------------------------------------------|                      outro

    :
      : !!!
      URL - http://akkordbard.ru/, -
0.041743993759155