.  . 
"Spit It Out" - Slipknot - :::RockBy.Net:::, , >>> Slipknot >>> Spit It Out

"Spit It Out"
"Slipknot"

			 Intro

|-------------------------|
|-------------------------|
|-------------------------|
|-------------------------|
|-------------------------|
|-1-0-1-0-2-0-1-0-1-0-2-0-|

Verse

|-------------------------------
|-------------------------------
|-------------------------------
|-------------------------------
|0-0-1-1-0-0-1-1-0-0-1-1-0-0-1-1
|0-0-1-1-0-0-1-1-0-0-1-1-0-0-1-1

Chorus

|-------------------
|-------------------
|-------------------
|-------------------
|3-3-1-2-1-3-3-1-2-1
|3-3-1-2-1-3-3-1-2-1

Small solo thing

|---------
|---------
|---5--7--
|7--6-----
|---------
|---------

Ending

|-----------
|-----------
|-----7---8-
|---5---5---
|-----------
|0-0-------- (repeat)

|-------------------------
|-------------------------
|-------------------------
|-------------------------
|0-0-1-0-0-1-0-0-1-0-0-2-3
|0-0-1-0-0-1-0-0-1-0-0-2-3

Have fun!

    :
      : !!!
      URL - http://akkordbard.ru/, -
0.045042991638184