.  . 
"Spit It Out" - Slipknot - :::RockBy.Net:::, , >>> Slipknot >>> Spit It Out

"Spit It Out"
"Slipknot"

			 -------------------------------------------------------------------------------
			     Spit It Out  -  Slipknot
-------------------------------------------------------------------------------

Tabbed by:  Darren Grady.
Email:     diesel15088@yahoo.co.uk

This is a great track from their first album and is fairly easy to learn just
crank up the distortion and your on your way. I have included some of the other
guitar parts that James Root currently of Stone sour plays.

Tuning: B  F#  B  E  G#  C#

Intro  (  Part where Coreys Rapping.  )

|----------------------------------------------------------------------|
|----------------------------------------------------------------------|
|----------------------------------------------------------------------| 
|----------------------------------------------------------------------|   
|---1----0---------------1---- 0---------------1-----0-----------------| 
|---1----0------3~ -----1-----0------3~ -----1-----0-------------------|

|-------------------------------------------------------------------------|
|-------------------------------------------------------------------------|
|-------------------------------------------------------------------------|
|-------------------------------------------------------------------------|
|----1-----0---------------------1----------------------------------------|
|----1-----0 -------3~ --------- 1----------------------------------------|

Verse.

|----------------------------------------------------------------------|
|----------------------------------------------------------------------| 
|----------------------------------------------------------------------| 
|---1----0---------------1---- 0---------------1-----0-----------------| 
|---1----0------2~ -----1-----0------2~ -----1-----0-------------------|

Chorus:
|----------------------------------------------------------------------|
|----------------------------------------------------------------------|
|----------------------------------------------------------------------|
|----------------------------------------------------------------------|
|-----3--3---3------3---2----2---3------3----1---------1---------------|
|-----3--3---3------3---2----2---3------3----1---------1---------------|



Fill:   ( This is that little riff that plays after the chorus )
|----------------------------------------------------------------------|
|----------------------------------------------------------------------|
|----------------------------------------------------------------------|
|-----0------6------0-----7~ ---------------0-------6-----0----7~------|
|----------------------------------------------------------------------|
|----------------------------------------------------------------------|

Bridge :    (  Corey Rapping Again  )

|----------------------------------------------------------------------|
|----------------------------------------------------------------------|
|---7--7---7------7-----8----8-----7----8-------------8--------7-------|
|----------------------------------------------------------------------|
|---5--5---5------5-----6----6-----5----6-------------6-------5--------|
|----------------------------------------------------------------------|

Gtr 2 + 3
|---------------------------------------------------------------------------|
|---------------------------------------------------------------------------|
|---------------------------------------------------------------------------|
|---------------------------------------------------------------------------|
|----0---0---0--------------------------------------------------------------|
|----0---0---0--------------------------------------------------------------|

Play Bridge throughout the rap part until about half way through then play the following:

|-----------------------------------------------------------------------
|-----------------------------------------------------------------------|
|---14--14---14------14-----15----15-----14----15-------------15---14---|
|-----------------------------------------------------------------------|
|---12--12---12------12-----13----13-----12----13-------------13---12---|
|-----------------------------------------------------------------------|

Gtr 2  + 3   play this riff.
|---------------------------------------------------------------------|
|---------------------------------------------------------------------|
|---------------------------------------------------------------------|
|---------------------------------------------------------------------|
|---------------------------------------------------------------------|
|--0----0-----0----0----1------1--0------0---1------1---0-------------|

|-----------------------------------------------------------------------|
|-----------------------------------------------------------------------|
|---19--19---19------19-----20----20-----19----20-------------20---19---|
|-----------------------------------------------------------------------|
|---17--17---17------17-----18----18-----17----18-------------18---17---|
|-----------------------------------------------------------------------|

Outro:
|----------------------------------------------------------------------|
|----------------------------------------------------------------------|
|----------------------------------------------------------------------|
|----------------------------------------------------------------------|
|---0--0--0--------0---1-------1-----0---------0----1--------1----0----|
|---0--0--0--------0---1-------1-----0---------0----1--------1----0----|


Mick uses a Flanger to play this track but if you do not own one, just crank
up the distortion to the max.
If anyone has anyone good left behind tabs then please e-mail them to me, I
cannot tab that track and I cannot find any good tabs of it anywhere.
===============================================================================

    :
      : !!!
      URL - http://akkordbard.ru/, -
      : -
      URL - http://https://turbinext.prom.ua/, -
0.11854290962219