.  . 
"Sick" - Slipknot - :::RockBy.Net:::, , >>> Slipknot >>> Sick

"Sick"
"Slipknot"

			 OK i only do this because i dont see anyone correcting these tabs or
adding on to them so this is most of sic

intro:  MIck and JaMeS
that isnt it you repeat the zero 3 times before you do the 1
----------------------|
----------------------|
----------------------|
--0-0-s-1-------------|
--0-0-s-1-------------|
--0-0-s-1-------------|    the S means slap your hand on the third
fret after every time you play the first note

verse:  After chris says "here comes the pain"

---------------------------------------------------------|
---------------------------------------------------------|
---------------------------------------------------------|
--3-3--2-2-----------1-0-1-------------------------------|
--3-3--2-2--0-1-xxxx-1-0-1-------------------------------|
--3-3--2-2--0-1-xxxx-1-0-1----0^-0^--0^----0^--4--4--4---| bend on 1 sorry


ENEMY SHOW ME WHAT YOU WANNA BE

WORK OUT THE BEAT YAH SELF


--------------------------------|
--------------------------------|
--------------------------------|
---X-X--1-x-x-1/4---------------|
---X-X--1-x-x-1/4---------------|
---X-X--1-x-x-1/4---------------|

i dont know the end part but i corrected what was wrong on the
other tab

out

james

    :
      : !!!
      URL - http://akkordbard.ru/, -
      : -
      URL - http://https://turbinext.prom.ua/, -
0.093291044235229