.  . 
"Purity" - Slipknot - :::RockBy.Net:::, , >>> Slipknot >>> Purity

"Purity"
"Slipknot"

			 Tabbed by: slipknot_maggot    slipknot_maggot_corps_666@msn.com
Tuning : B-F#-B-E-G#-C#

Key:
pm.  - Palm Mute
h    - Hammer 
p    - Pluck 
>    - Slide
x    - Mute String
    - Scratch String by Sliding pick 



Riff1
c#|-------------|
g#|-------------|
e |-------------|
B |-0-1-0-0-0-0-|
F#|-0-1-0-0-0-0-|
B |-0-1-0-0-0-0-|
    pm..........


Riff2
c#|--------------|
g#|--------------|
e |--------------|
B |-0-1-0-0--7---|
F#|-0-1-0-0--7---|	(Use wah-wah pedal on 7)
B |-0-1-0-0--7---|


Riff3
c#|-------------|
g#|-------------|
e |-------------|
B |-0-1-0-0-0-0-|
F#|-0-1-0-0-0-0-|
B |-0-1-0-0-0-0-|
    

Riff4
c#|------------------|
g#|------------------|
e |------------------|
B |------------------|
F#|-2-3-2-2-2-3-2-2--|
B |-0-1-0-0-0-1-0-0--|
    pm..........


Riff4a
c#|-------------|
g#|-------------|
e |-------------|
B |-\-----|
F#|-\\----|
B |-------------|



Riff5
c#|-------------|
g#|-------------|
e |-------------|
B |-1-4-1-3--x-x-|   
F#|-1-4-1-3--x-x-| 
B |-1-4-1-3--x-x-| 
    


Riff7

B |-7->-9-7-7-
F#|-x->-x-x-x-
B |-5->-7-5-5-


Riff8

B |------------
F#|------------
B |-1-h-3-x-x--


Riff9

B |-1-h-3-0-0--
F#|-1-h-3-0-0--
B |-1-h-3-0-0--
	  pm.
          

Riff10

B |--------------
F#|--------------
B |-0--3-0-1-0-0-


Riff11

B |-0--3-0-1-0-0-
F#|-0--3-0-1-0-0-
B |-0--3-0-1-0-0-

    :
      : !!!
      URL - http://akkordbard.ru/, -
      : -
      URL - http://https://turbinext.prom.ua/, -
0.029056072235107