.  . 
"Pulse Of The Maggots" - Slipknot - :::RockBy.Net:::, , >>> Slipknot >>> Pulse Of The Maggots

"Pulse Of The Maggots"
"Slipknot"

			 Slipknot - Pulse of the maggots


ph - pinch harmonics
pm - palm mute
 - slide
~~ - vibrato

              x2                      x8
c# |-----------------------------||------------||-----------------------------------------------|
g# |-----------------------------||------------||-----------------------------------------------|
e  |-----------------------------||----1514---||-----------------------------------------------| 
b  |-0-0-------------------------||------------||---7-8-9----------------------3-3-3-4-3-2------|
f# |-0-0-------------------------||----1312---||---7-8-9----------------------3-3-3-4-3-2------|
B  |-0-0-011-3-0-0-0-3-512~~----||------------||---7-8-9-888-101010-11-11-11--3-3-3-4-3-2------|
                                                    PM <-------------------------------->


|-----------------------------|
|-----------------------------|
|-----------------------------|
|-0-0-------------------------| x8
|-0-0-------------------------|
|-0-0-0-1-1-3-0-0-0-3-512~~--|

|-----------------------------|
|-----------------------------|
|-----------------------------|
|--6-5-6-3-5-3-5-1------------|x1
|--6-5-6-3-5-3-5-1------------|
|--6-5-6-3-5-3-5-1------------|

|-----------------|---------------------|-----------------------------------------|
|-----------------|---------------------|-----------------------------------------|
|-----------------|---------------------|-----------------------------------------|
|--0-0------0-0---|--0-135/3-0-0------|---0-0-----------------------------------| x5
|--0-0------0-0---|--0-135/3-0-0------|---0-0-----------------------------------|
|--0-0-0333-0-0---|--0-135/3-0-0------|---0-0-0-1-1-3-0-0-0-3-512--------------|


|-----------------------------|
|-----------------------------|
|-----------------------------|
|--6-5-6-3-5-3-5-1------------|x4
|--6-5-6-3-5-3-5-1------------|
|--6-5-6-3-5-3-5-1------------|

|-----------------------------|
|-----------------------------|
|-----------------------------|
|-0-0-------------------------| x1
|-0-0-------------------------|
|-0-0-0-1-1-3-0-0-0-3-512~~--|


|-----------------|---------------------|-----------------------------------------|
|-----------------|---------------------|-----------------------------------------|
|-----------------|---------------------|-----------------------------------------|
|--0-0------0-0---|--0-135/3-0-0------|---0-0-----------------------------------| x5
|--0-0------0-0---|--0-135/3-0-0------|---0-0-----------------------------------|
|--0-0-0333-0-0---|--0-135/3-0-0------|---0-0-0-1-1-3-0-0-0-3-512--------------|
   pm 
|-----------------------------|
|-----------------------------|
|-----------------------------|
|--6-5-6-3-5-3-5-1------------|x4
|--6-5-6-3-5-3-5-1------------|
|--6-5-6-3-5-3-5-1------------|


--SOLOS--


|--------------------------------------|
|--------------------------------------|
|--------------------------------------|
|--0-0-0----0-0-0------2-3-4-1---------|
|--0-0-0----0-0-0------2-3-4-1---------|
|--0-0-0-3~~0-0-0-3~~--2-3-4-1---------|
   pm    ph       ph

    :
      : !!!
      URL - http://akkordbard.ru/, -
0.039399147033691