.  . 
"Only One" - Slipknot - :::RockBy.Net:::, , >>> Slipknot >>> Only One

"Only One"
"Slipknot"

			 Only One-Slipknot
Slipknot

Drop B
B F# B E G# C#

2 gtrs. x2

e-------------17~~~~~~~~~-------------17~~~~~~~~~-------
b-17~~~~~~~~~-------------17~~~~~~~~~-------------------
g-------------------------------------------------------
d-------------------------------------------------------
a-------------1~~~~~~~~~~-------------1~~~~~~~~~~-------
d-3~~~~~~~~~~-------------3~~~~~~~~~~-------------------

Fig 1. ...pain, made to order...

e-------------------------------------------------------
b-------------------------------------------------------
g-------------------------------------------------------
d----3-2------------3-----------2-----------------------
a-0--1-0----3-----2-1---2-1-----0-----1-----------------
d-0---------3-----2-----2-1-----------1-----------------

Verse:(no gtr, just sampling) ...im not the second comin....

Pre-Chorus: Fig 1. x2   ...all i hear is human noise....

Interlude: x3

e-------------------------------------------------------
b-------------------------------------------------------
g-------------------------------------------------------
d-------------------------------------------------------
a---------5--6----------5--6----------------------------
d-3-0---0-5--6--3-0---0-5--6----------------------------

e-------------------------------------------------------
b-------------------------------------------------------
g-------------------------------------------------------
d-------------------------------------------------------
a---------5--5---------5--6-----------------------------
d-3-0---0-5--6--3-0--0-5--6-1---------------------------

Bridge Riff A    ...i can only die over time....
12/8 time
e-----------------------------------------------------------------
b-----------------------------------------------------------------
g-----------------------------------------------------------------
d-----------------------------------------------------------------
a----------5--3--------------5--3-------------5--3--1-2-1-2-3-2-1-
d-0-----3--------1--0-----3--------1--0-----3-------1-2-1-2-3-2-1-

Chorus: Fig 2.

e-----------------------------------------------------------------
b-----------------------------------------------------------------
g-----------------------------------------------------------------
d-----------------------------------------------------------------
a-1-0-1-3-4-3-1-3-1-0-1-3-4-3-1-3-1-0-1-3-4-3-1-3-1-0-1-3-4-3-1-3-
d-1-0-1-3-4-3-1-3-1-0-1-3-4-3-1-3-1-0-1-3-4-3-1-3-1-0-1-3-4-3-1-3-

thats all

trevor jones
timmy91199@yahoo.ca

    :
      : !!!
      URL - http://akkordbard.ru/, -
      : -
      URL - http://https://turbinext.prom.ua/, -
0.043029069900513