.  . 
"My Plague Solo" - Slipknot - :::RockBy.Net:::, , >>> Slipknot >>> My Plague Solo

"My Plague Solo"
"Slipknot"

			 Submitted by doug parry

This is the solo for my plague in case you didn's know if you have any comments mail to
Raging1Inferno@AOL.com thank you


Song- my plague solo
band slipknot

Guitar 1
e--------------------------|
B--------------------------|
G----------------6-5--7----|
D-------------------4---5--|
A--------4-3---------------|
E--0-3-2----4-3------------|

Guitar 2

e--------------------------|
B--------------------------|
G--------------------------|
D---------------3-2-4------|
A--------4-3-------2-3-----|
E--0-3-2----4-3------------|

then I don't know if it's both guitars or just one but here it is

e--------------------------------|
B--------------------------------|
G----------------2-3-2-0---------|
D-----------------------3-2--4---|
A----------3-4--------------2-3--|
E--0-2-3-0----3-4----------------|

    :
      : !!!
      URL - http://akkordbard.ru/, -
      : -
      URL - http://https://turbinext.prom.ua/, -
0.088809013366699