.  . 
"My Plague" - Slipknot - :::RockBy.Net:::, , >>> Slipknot >>> My Plague

"My Plague"
"Slipknot"

			 My Plague-Slipknot
Iowa

Drop A:
A E A D F# B

Riff A x2
e--------------------------------------------------------
b--------------------------------------------------------
g--------------------------------------------------------
d--------------------------------------------------------
a-0-0-0-0-0-----------------0-0-0-0-0--------------------
d-0-0-0-0-0--1--(1)/2--21--0-0-0-0-0--1--(1)/2--21-----

Verse 1: Riff A x2

e--------------------------------------------------------
b--------------------------------------------------------
g--------------------------------------------------------
d--------------------------------------------------------
a-0-0-0-0-0----------0--0--0---------------0--0--0-------
d-0-0-0-0-0--------1-0--0--0--1-(1)/2--21-0--0--0-------

Verse 2

e--------------------------------------------------------
b--------------------------------------------------------
g--------------------------------------------------------
d--------------------------------------------------------
a-0--0--0--1--(1)/2--21--0--0--0--1--(1)/2--21---------
d-0--0--0--1--(1)/2--21--0--0--0--1--(1)/2--21---------

Chorus:

e-----------------------------------------------------------------
b-----------------------------------------------------------------
g------7--7--10-10---12--12---------------------------------------
d------x--x---x--x----x---x---------------------------------------
a------5--5---8--8---10--10---2-2-2-2-2-2-2-2-2-2-6-6-6-6-6-6-6-6-
d-0--0------0------0--------0-2-2-2-2-2-2-2-2-2-2-6-6-6-6-6-6-6-6-

Interlude:

gtr 2


e-----------------------------------------------------------------
b--------------------6-5---7-----------------------6-5---7--------
g------------------------4---5-------------------------4---5------
d-----------------------------------------------------------------
a-------4-3-------------------------------------------------------
d-0-3-2--------4-3--------------0-3-2---------4-3-----------------

gtr 1.

e-----------------------------------------------------------------
b-----------------------------------------------------------------
g-----------------------------------------------------------------
d--------------------3-2---4-----------------------3-2---4--------
a-------4-3--------------2---3--------4-3--------------2---3------
d-0-3-2--------4-3--------------0-3-2--------4-3------------------

Riff C

e-----------------------------------------------------------------
b-----------------------------------------------------------------
g-----------------------------------------------------------------
d-------------------2-3p2p0---4---------------------2-3p2p0---4---
a---------3h4---------------2---3---------3h4---------------2-----
d-0-2-3-0-----3h4-0---------------0-2-3-0-----3h4-0-------------0-

thats all

trevor jones
timmy91199@yahoo.ca

    :
      : !!!
      URL - http://akkordbard.ru/, -
0.037071943283081