.  . 
"Liberate" - Slipknot - :::RockBy.Net:::, , >>> Slipknot >>> Liberate

"Liberate"
"Slipknot"

			 - Slipknot -
- LIBERATE -
submitted by: Barret Strickland
Tuning : B-F#-B-E-G#-C#

Key:
    - Scratch String With Pick
pm.  - Palm Mute
h    - Hammer 
>    - Slide
x    - Mute String 


Riff1

B |-----------------------
F#|-----------------------  
B |-0-10--0-00-0-00-0-00--
       
        10


Riff1a

B |-1-0-
F#|-1-0-
B |-1-0-
        

Riff2

B |-1-0--0-00-0-00-0-00-
F#|-1-0--0-00-0-00-0-00-
B |-1-0--0-00-0-00-0-00-
         pm.............


Riff3

B |-1-0x--1r0-1->-3-
F#|-1-0x--1r0-1->-3-
B |-1-0x--1r0-1->-3-


Riff4

B |-1-0x--3h1p3--0x0x-
F#|-1-0x--3h1p3--0x0x-
B |-1-0x--3h1p3--0x0x-


Riff5

B |-1-0x-0x-0x-1-0x-1->-3-
F#|-1-0x-0x-0x-1-0x-1->-3-
B |-1-0x-0x-0x-1-0x-1->-3-


Riff6

B |-0p1--0p1-
F#|-0p1--0p1-
B |-0p1--0p1-


Riff7

B |-7->-8-7->-8-
F#|-x->-x-x->-x-
B |-5->-6-5->-6-


Riff8

B |-0-h-1--0-h-1---------------------------------------
F#|-0-h-1--0-h-1---------------------------------------
B |-0-h-1--0-h-1---------------------------------------
    pm..........
 

Riff9

B |-8---9--7--6-
F#|-x---x--x--x-
B |-6---7--6--4-


Riff10b

B |-2x-2x-2x--1x--0--1-
F#|-2x-2x-2x--1x--0--1-
B |-2x-2x-2x--1x--0--1-



Riff10

B |-2--1x--0--1-
F#|-2--1x--0--1-
B |-2--1x--0--1-


Riff10a

B |-\\--
F#|-\\--
B |-------------




    :
      : !!!
      URL - http://akkordbard.ru/, -
      : -
      URL - http://https://turbinext.prom.ua/, -
0.10485315322876