.  . 
"Left Behind" - Slipknot - :::RockBy.Net:::, , >>> Slipknot >>> Left Behind

"Left Behind"
"Slipknot"

			 Eh. This is a song i bin praktisin 4 awile. I got the notes all down but
u might havta skrew around wit the distorshion a bit (b.c. riches sound
the best on this song so if it sounds a little off its ok)
tuning: standard or 2 steps down. it sounds about the same on both
intro/ chorus
|--------------------------------------|
|--------------------------------------|
|--------------------------------------|
|---------------------1-1--------------|
|-2-2-1-1---------1-1----------2-2-1-2-|
|---------2-2-1-1----------0-0---------|

|-----------------------------|
|-----------------------------|
|-----------------------------|
|---------------------1-1-----|
|-2-2-1-1---------1-1---------|
|---------2-2-1-1---------0-0-| repeat x2

verse:
|-----------------------------|
|-----------------------------|
|-----------------------------|
|-33-99-33-99-33-99-44-22-3333|
|-33-99-33-99-33-99-44-22-3333|
|-33-99-33-99-33-99-44-22-3333|repeat x4

interlude thingy:
|-----------------------||-------------------|
|-----------------------||-------------------|
|-5-5-6-6-5-5-6-6-5-5-6-||-------------------|
|-----------------------||-------------------|
|-----------------------||-------------------|
|-----------------------||-33333333-11111111-|

|-----------------------||---------------------------------|
|-----------------------||---------------------------------|
|-7-7-8-8-7-7-8-8-7-7-8-||---------------------------------|
|-----------------------||---------------------------------|
|-----------------------||---------------------------------|
|-----------------------||-3-3-3-3-3-3-3-3-5-5-5-5-5-5-5-5-|

|---------------------|
|---------------------|
|---------------------|
|---------------------|
|---------------------|
|-3-3-0-3-3-3-3-3-3-0-| repeat x2

|-----------------|
|-----------------|
|-----------------|
|-----------------|
|-----------------|
|-1-3-0--0-1-2-1-3| repeat x8

Orders:

intro
verse
chorus
verse
chorus 
interlude
chorus 
(mainly bass outro with a little bit of guitar)

well that aboot raps things up. nething u wanna ask me aboot send an email 2
Whipped_369@swirve.com (second email to stop hakers from gettin my good one ;))

    :
      : !!!
      URL - http://akkordbard.ru/, -
0.043112993240356