.  . 
"Iowa" - Slipknot - :::RockBy.Net:::, , >>> Slipknot >>> Iowa

"Iowa"
"Slipknot"

			 All of its in drop d Tuning ^=Bend
listen to the song IOWA to get the rythem

Intro=CLEAN
E-------------------------------------------
B-------------------------------------------
G-------------------------------------------
D-4-----------------------------------------
A-----2-------------------------------------
E---0----0----------------------------------
 This is the Very long intro


Now hit the distorion, turn gain all the way up
E----------------------------------
B----------------------------------
G----------------------------------
D-----2^-2-2-0---------------------
A-----2^-2-2-0---------------------
E-----2^-2-2-0---------------------
Repeat till he sings then it goes like this

E----------------------------------
B----------------------------------
G----------------------------------
D----------------------------------
A-----2^-2-2-0---------------------
E----------------------------------

Then its back to the intro easy song

    :
      : !!!
      URL - http://akkordbard.ru/, -
0.069268226623535