.  . 
"Eyeless" - Slipknot - :::RockBy.Net:::, , >>> Slipknot >>> Eyeless

"Eyeless"
"Slipknot"

			 Eyeless-Slipknot
Slipknot

Drop B
B F# B E G# C#

Riff A w/ Ring Modulator x2

e-12-12-12----12----12-12-12-12-12-12-12-12-12-12-----
b----------16----16-16-16-16-16-16-16-16-16-16-16-----
g-----------------------------------------------------
d-----------------------------------------------------
a-----------------------------------------------------
d-----------------------------------------------------

Gtr 1 Riff A x2

Riff B x2

e-----------------------------------------------------
b-----------------------------------------------------
g-----------------------------------------------------
d-----------------------------------------------------
a---------2---1---------------------------------------
d-0-0-0-3---3---2-0-0---------------------------------

Riff A x6

Riff C

e-----------------------------------------------------
b-----------------------------------------------------
g-----------------------------------------------------
d-------------------------------1---------------------
a---------2---1---------2-----1-----------------------
d-0-0-0-3---3---2-0-0-0---0-0-------------------------

Fig 1. x4

e----------------------------------------------------------------
b----------------------------------------------------------------
g----------------------------------------------------------------
d----------------------------------------------------------------
a-------3---2-3-----5-6-----6-8-------3---2-3-----5-6-----6-8----
d-0-0-0-3-0-2-3-0-0-5-6-0-0-6-8-0-0-0-3-0-2-3-0-0-5-6-0-0-6-8----

Verses
Fig 2.

e----------------------------------------------------------------
b----------------------------------------------------------------
g----------------------------------------------------------------
d----------------------------------------------------------------
a---------3---2-3------------------------3---2-3-----------------
d-0-0-0-0-3-0-2-3----------------0-0-0-0-3-0-2-3-----------------

Chorus: Fig 1 x4

Bridge: Fig 3

e-----------------------------------------------------
b-----------------------------------------------------
g-----------------------------------------------------
d-3-3-3---3-3-3-3-3-3-3---3-3-3-3---3-3-3-3-3-3-3-----
a-2-2-2---2-2-2-2-2-2-2---2-2-2-2---2-2-2-2-2-2-2-----
d-----------------------------------------------------

Interlude:

Fig 4.

e-----------------------------------------------------
b-----------------------------------------------------
g-----------------------------------------------------
d-----------------------------------------------------
a-0-0-0-----------0-0-1---0-0-1-----------------------
d-0-0-0--6~~~~~~~-0-0-1---0-0-1-----------------------

Interlude:

Riff D

e-----------------------------------------------------
b-----------------------------------------------------
g-----------------------------------------------------
d-----------------------------------------------------
a-----------------------------------------------------
d-0-------------4------------1--------2---------------

Half time feel

e-----------------------------------------------------------------
b-----------------------------------------------------------------
g-----------------------------------------------------------------
d-----------------------------------------------------------------
a-----------------------------------------------------------------
d-0-0-0-0-0-0-0-0-4-4-4-4-4-4-4-4-1-1-1-1-2-2-2-2-2-2-2-2-2-2-2-2-

Outro:

Fig 5.

e-----------------------------------------------------------------
b-----------------------------------------------------------------
g-----------------------------------------------------------------
d-----------------------------------------------------------------
a-0-0-0---------0-0-1---0-0-1--0-0-0----------0-0-1---0-0-1-------
d-0-0-0-6~~~~~~-0-0-1---0-0-1--0-0-0-6~~~~~~~-0-0-1---0-0-1-------

thats all

trevor jones
timmy91199@yahoo.ca

    :
      : !!!
      URL - http://akkordbard.ru/, -
0.036280870437622