.  . 
"Confessions" - Slipknot - :::RockBy.Net:::, , >>> Slipknot >>> Confessions

"Confessions"
"Slipknot"

			 Slipknot - Confessions (Mate.Feed.Kill.Repeat.)
Tabbed by Tinboy

Standard Tuning - E B G D A E (high to low)

This is just the solo, the rest of the song is really easy anyway.
Please tell me what you think of this!

timing: 2:42 - 3:22

|-------------------------------------------------------8-5--------------|
|----------------------------------------8-6-5--10-8-7------8-6v---------|
|-------------------------------1h3/7v-----------------------------------|
|--------------------------1h2h3-----------------------------------------|
|-------5-------------1h2h3----------------------------------------------|
|---6-6---6-1---1h2h3---------------------------------------------------|

|---/8-/10-10v--10-13-15-15b-(17)-15-13-10-8-10v-------------------------|
|------------------------------------------------------------------------|
|------------------------------------------------------------------------|
|------------------------------------------------------------------------|
|------------------------------------------------------------------------|
|------------------------------------------------------------------------|

|------------------------------------------------------------------------|
|---5h7/9b--9v-8v-6v-8v-7br----------------------------------------------|
|---------------------------5v-7v----------------------------------------|
|------------------------------------------------------------------------|
|------------------------------------------------------------------------|
|------------------------------------------------------------------------|

|------------------------------------------------------------------------|
|----------------------------------------------------13-11-10-15-13-12---|
|-----------------------------------12-10-9-14-12-11---------------------|
|-----------11-10-9---------12-10-9--------------------------------------|
|---11-10-9---------11-10-9----------------------------------------------|
|------------------------------------------------------------------------|

|---13-11-10-------------------------------------------------------------|
|------------13-11-10-----------------14br-------------------------------|
|---------------------12-10-12b-12-10------12-14b--14p13p12--------------|
|-----------------------------------------------------------14p13p12v----|
|------------------------------------------------------------------------|
|------------------------------------------------------------------------|

|------------------------------------------------------------------------|
|---11tp--13tp--15tp--17tp-----------------------------------------------|
|---13tp--15tp--17tp--19tp-----------------------------------------------|
|------------------------------------------------------------------------|
|------------------------------------------------------------------------|
|------------------------------------------------------------------------|

|---20b-20-18-17-16-15-13-1210-8-10br-----------------------------------|
|------------------------------------------------------------------------|
|------------------------------------------------------------------------|
|------------------------------------------------------------------------|
|------------------------------------------------------------------------|
|------------------------------------------------------------------------|

|---14h16-12h14----------------------------------------------------------|
|---------------14h16-12h14----------------------------------------------|
|---------------------------14h16-12h14-------------14b------------------|
|---------------------------------------14h16-15-17-----14-15-15-16b-15--|
|------------------------------------------------------------------------|
|------------------------------------------------------------------------|

|------------------------------------------------------------------------|
|------------------------------------------------------------------------|
|------------------------------------------------------------------------|
|---------------------------------------------10----10-12-10-12-13-------|
|------------------10----10-12-10-12-13-12-13----13----------------------|
|---10-11-13-11-13----13-------------------------------------------------|

|-----------------------------------------------------10-13-15-13-12----10--|
|--------------------------10----10-11-10-11-13-11-13----------------13-----|
|--------10----10-12-10-12----12--------------------------------------------|
|--12-13----13--------------------------------------------------------------|
|---------------------------------------------------------------------------|
|---------------------------------------------------------------------------|


Thats all!
any queries or corrections email - infantfinite666@hotmail.com

    :
      : !!!
      URL - http://akkordbard.ru/, -
      : -
      URL - http://https://turbinext.prom.ua/, -
0.047681093215942