.  . 
"Purity" - Slipknot - :::RockBy.Net:::, , >>> Slipknot >>> Purity

"Purity"
"Slipknot"

			 Mxtabs [http://www.mxtabs.net]
Artist: Slipknot
Song: Purity
Album: Self Titled
tabbed by:jamie cushion
modus operandi

Intro
|----------------------------------------------------------------|
|----------------------------------------------------------------|
|----------------------------------------------------------------|
|-0-3-0-1-0-0-1-0-0-3-0-1-0-0-1-0-0-3-0-1-0-0-1-0-0-3-0-1-0-0-6-|

Riff I
|-----------------|
|-----------------|
|-----------------|
|-0-3-0-1-0-0-1-0-|

Riff II
|---------------|
|---------------|
|---------------|
|-0-3-0-1-0-0-6-|

Verse
|-----------|
|-----------|
|--------4~-|
|-0~-0-0~---|

Riff 1
Verse
Riff 1
Verse
Riff 1

Chorus
|-----------------------|
|-----------------------|
|-----------------------|
|-4--4--4--4-0--0-0-0-7-|

|------------------------------|
|------------------------------|
|------------------------------|
|-4--4--4--4-0--0-0-0-7--7--0~-|

Interlude 
|---------|
|---------|
|---------|
|-0-3-0-0-|

Riff I

    :
      : !!!
      URL - http://akkordbard.ru/, -
0.04336404800415