.  . 
"Disasterpiece" - Slipknot - :::RockBy.Net:::, , >>> Slipknot >>> Disasterpiece

"Disasterpiece"
"Slipknot"

			 
Music X Tabs [http://www.mxtabs.net]
SLIPKNOT
DISASTERPIECE
IOWA
tabbed by:jamie cushion
modus operandi

INTRO      
-----------------------|---------------------------------|
-----------------------|---------------------------------|
-----------------------|---------------------------------|
--0-0-0----0-0-0-12----|--0-0-0--0-0-0--0-0-0H2-2R0-3H1--|

-------------|
-------------|
-------------|
-------------|
--000-111-0--|
           
VERSE   
---------------------------------------------|             
---------------------------------------------|
---------------------------------------------|
---------------------------------------------|
--(0/5-0/71)--0-0-0-1-1-1-0--2H1-0-3H1-4H1--|

CHORUS
-----------------|------------------------------------------------|
-----------------|------------------------------------------------|
-----------------|------------------------------------------------|
-----------------|------------------------------------------------|
--0-0-0-1-1-1-0--|--888888888888-111111111111-00000-11111-88888---|

VERSE  
---------------------------------------------|            
---------------------------------------------|
---------------------------------------------|
---------------------------------------------|
--(0/5-0/71)--0-0-0-1-1-1-0--2H1-0-3H1-4H1--|

CHORUS
-----------------|------------------------------------------------|
-----------------|------------------------------------------------|
-----------------|------------------------------------------------|
-----------------|------------------------------------------------|
--0-0-0-1-1-1-0--|--888888888888-111111111111-00000-11111-88888---|
 
BRIDGE 
-------------|----------------------|
-------------|----------------------|
-------------|----------------------|
-------------|----------------------|
--0-0-1-0-0--|--0-0-3-4--1-/6-8-9--|

----------------------|
----------------------|
----------------------|
----------------------|
--X-0-3-4--1-/6-8-9--|
   
---------------------------------------|-----------------|                 
---------------------------------------|-----------------|
---------------------------------------|-----------------|
---------------------------------------|-----------------|
--7-12--7/9--129--117--95--73--51-|--0-0-0-3-3-3-2--|

------------------------------------|
------------------------------------|
------------------------------------|
------------------------------------|
-(5)-0-0-0-3-3-3-2-5-5-5-3-3-6-6--|
                  
OUTRO 
--------------------------------|      
--------------------------------|
--------------------------------|
--------------------------------|
--(7-12)--X-0-3-4--1-/6-8-9--|

-------------------------------|
-------------------------------|
-------------------------------|
-------------------------------|
--(5/9)--0-0-3-4--1-/6-8-9--|

    :
      : !!!
      URL - http://akkordbard.ru/, -
0.039628982543945