.  . 
"Confessions" - Slipknot - :::RockBy.Net:::, , >>> Slipknot >>> Confessions

"Confessions"
"Slipknot"

			 SLIPKNOT: CONFESSIONS
MATE FEED KILL REPEAT
Mail: ufo_bass@latinmail.com

tabbed by: Pablo Arteaga

Tuning: standard (EADG)

This is my first tab and its not complete, its only the intro, it is very dificult and fast,
i couldnt find it anywhere so i did it myself
if u can finish it please mail it to me

hope this helps u

G------10/9--------9-12/11/10-------------
D----------------10----------10-----------
A----12---------10------------------------
E--10------8---8--------------------------

G------10/9---9-------9-10/9--------------
D-------------------10------10------------
A----12------------10--------10-----------
E--10------8------8-----------------------

    :
      : !!!
      URL - http://akkordbard.ru/, -
0.037614107131958