.  . 
"Circle" - Slipknot - :::RockBy.Net:::, , >>> Slipknot >>> Circle

"Circle"
"Slipknot"

			 -------------------------------------------------------------------------------
			     Circle - Slipknot
-------------------------------------------------------------------------------

Tabbed By :mayhembass01 
e-mail: seanymo500@msn.com

Tuning: EADG

ya this is my first tab so enjoy it should be accurate cuz i check them out with my bass instructor. 

Intro

G|-------------------------------------------------------------------------|
D|-------------------------------------------------------------------------|
A|-------------------------------------------------------------------------|
E|--10-8-7-5-3-5/12--------10-8-7-5-3-5/12---------------------------------|

then paul does this before geting into the basic verse

G|-------------------------------------------------------------------------|
D|-------------------------------------------------------------------------|
A|-------------------------------------------------------------------------|
E|--3-5-7-8-10-8/12--------10-8-7-5-3-5/12---------------------------------|

Verse

G|-----------------|
D|-----------------|
A|-----------------|
E|--3-5-2-3-0or12--|

Chorus x3

G|---------------|
D|---------------|
A|--5--0---3--7--|
E|---------------|

right after the first chorus

G|-----------|
D|-----------|
A|-----7-----|
E|--3-----0--|


right before the big ass drum solo

G|--------------|
D|--------------|
A|---3-------7--|
E|------3-------|




| /  slide up
|   slide down
| h  hammer-on
| p  pull-off
| ~  vibrato
| +  harmonic
| x  Mute note
===============================================================================

    :
      : !!!
      URL - http://akkordbard.ru/, -
      : -
      URL - http://https://turbinext.prom.ua/, -
0.038655042648315