Просмотр темы - Кто знает классные соляки на гитаре...СЮДА!!!!! - Форум на :::RockBy.Net:::
:::RockBy.Net:::
Общение РОКЕРОВ
 
 FAQFAQ   ПоискПоиск   РокерыРокеры   ГруппыГруппы   РегистрацияРегистрация 
 ПрофильПрофиль   Войти и проверить сообщенияВойти и проверить сообщения   ВходВход 

Кто знает классные соляки на гитаре...СЮДА!!!!!
На страницу 1, 2, 3, 4, 5, 6, 7, 8  След.
 
Начать новую тему   Ответить на тему    Список форумов :::RockBy.Net::: -> Аккорды, табулатуры
Предыдущая тема :: Следующая тема  

сколько лет надо учиться импровизации на гитаре до хорошего уровня???
неделя-месяц
0%
 0%  [ 0 ]
месяц - год
0%
 0%  [ 0 ]
год-5
50%
 50%  [ 1 ]
5-10
50%
 50%  [ 1 ]
Всего проголосовало : 2

Автор Сообщение
KIRCK
хэммет


Сообщения: 1620

СообщениеДобавлено: Пн Янв 23, 2006 6:22 pm    Заголовок сообщения: Кто знает классные соляки на гитаре...СЮДА!!!!! Ответить с цитатой

Все ко имеет хоть малейшее представление ,что такое гитара и как её держать,знает или умеет играть соляки ...пишите-roman_bl@mail.ru
В долгу не останусь... Very Happy Very Happy Very Happy
Вернуться к началу
Посмотреть профиль Отправить личное сообщение Отправить e-mail MSN Messenger
Jers
перчинка


Сообщения: 295

СообщениеДобавлено: Вт Янв 24, 2006 6:21 am    Заголовок сообщения: Ответить с цитатой

Сколько лет, сколько лет.. Всю жизнь. Laughing
_________________
Думать - это как любить и умирать:
каждый должен делать это сам.
Вернуться к началу
Посмотреть профиль Отправить личное сообщение
R0l
виртуоз


Сообщения: 297

СообщениеДобавлено: Вт Янв 24, 2006 10:26 am    Заголовок сообщения: Ответить с цитатой

Цитата:
сколько лет надо учиться импровизации на гитаре до хорошего уровня???

и жизни мало Wink

_________________
Борьба за мир - это как секс за девственность................................
Вернуться к началу
Посмотреть профиль Отправить личное сообщение Отправить e-mail
Aleks
админ


Сообщения: 2176

СообщениеДобавлено: Вт Янв 24, 2006 3:09 pm    Заголовок сообщения: Ответить с цитатой

Мне кажется, что сыграть абсолютно любой соляк можно (имея средненькие умения и опыт)... А вот чтоб самому замутить какой-нибудь крутой соляк - эт да... И не обязательно прямо-таки симпровизировать, а просто сочинить...
_________________
Попробуйте себя в Онлайн РОК-группе ...
Вернуться к началу
Посмотреть профиль Отправить личное сообщение
KIRCK
хэммет


Сообщения: 1620

СообщениеДобавлено: Пт Авг 25, 2006 9:20 am    Заголовок сообщения: Ответить с цитатой

Ех... старая тема...
это кста.. моя первая тема.... так что не судите строго...

_________________
Старая подпись себя исчерпала, а новую пока не придумал! может кто то что то подскажет?? пишите в личку!
http://www.pizdec.net/all-video.php?video=236848.avi -реально!
Вернуться к началу
Посмотреть профиль Отправить личное сообщение Отправить e-mail MSN Messenger
Ktulhu
техник


Сообщения: 73

СообщениеДобавлено: Вт Сен 19, 2006 3:01 pm    Заголовок сообщения: Ответить с цитатой

sochinit - ne sochinit, na samom dele nichego slozhnogo, mnogie shedevry i genialny tem, chto do uzhasa prosty... mozhno i za mesyac vyuchitsya, uzhe pravda s kakim-to basisom predshevstvuyshim, a mozhno i vsu zhizn zadnicu rvat, no nichego putnogo ne poluchitsya...
Вернуться к началу
Посмотреть профиль Отправить личное сообщение
Naj
пионерка


Сообщения: 22

СообщениеДобавлено: Сб Окт 07, 2006 4:38 pm    Заголовок сообщения: Re: Кто знает классные соляки на гитаре...СЮДА!!!!! Ответить с цитатой

Aerosmith - Crazy. Соло зашибенное. Если надо, могу прислать в gtp.

Код:
                                                             
E||--------------------|--------------------|------------------|
B||--------------------|--------------------|------------------|
G||--------------------|--------------2-4b--|----4r-----2-4-2--|
D||-----------------4b-|--4b-2----2-4-------|------------------|
A||--2b-2b-2b-2b-0-----|--------------------|------------------|
E||--------------------|--------------------|------------------|


                                                                 
-----2--------------|----7b---9--5---8b-|----7b-7--5------5-5--5-|
-------------5-5b---|--------------5----|-------------5h7--------|
--2----4b--5--------|-------------------|------------------------|
--------------------|-------------------|------------------------|
--------------------|-------------------|------------------------|
--------------------|-------------------|------------------------|


                                                                         
------5-5--5-----5-5--5-----5-5--|--10----10----10----10----10----10----|
--5h7--------5h7--------5h7------|--------------------------------------|
---------------------------------|-----10----10----10----10----10----10-|
---------------------------------|--------------------------------------|
---------------------------------|--------------------------------------|
---------------------------------|--------------------------------------|


                                                     
--10--17----17----19r-----|--14--------14------------|
---------17----17---------|-----17b-------17-14------|
--------------------------|---------------------16b--|
--------------------------|--------------------------|
--------------------------|--------------------------|
--------------------------|--------------------------|


                                                       
--------------------------------|----------------------|
--14-------------------------17r|-----14----14---------|
------------14-16-14b-14r-------|--------16----16b-----|
------14h16---------------16----|----------------------|
--------------------------------|----------------------|
--------------------------------|----------------------|


                                                                     
----17----17----17----17----17----17----17----17-|--21b-----21b-----|
-------17----17----17----17----17----17----17----|------------------|
-------------------------------------------------|------------------|
-------------------------------------------------|------------------|
-------------------------------------------------|------------------|
-------------------------------------------------|------------------|


                                                                   
--21r-17---------12----12-|-----12----12----12----12----12-------||
--------------15b---15b---|--15b---15b---15b---15b---15b---15r17-||
--------------------------|--------------------------------------||
--------------------------|--------------------------------------||
--------------------------|--------------------------------------||
--------------------------|--------------------------------------||
Вернуться к началу
Посмотреть профиль Отправить личное сообщение Отправить e-mail Посетить сайт автора
KIRCK
хэммет


Сообщения: 1620

СообщениеДобавлено: Сб Окт 07, 2006 6:47 pm    Заголовок сообщения: Ответить с цитатой

Класс! наконецто, кто то что то интересное!
2Naj:
пришли пожалуста в GTP
буду благодарен!

_________________
Старая подпись себя исчерпала, а новую пока не придумал! может кто то что то подскажет?? пишите в личку!
http://www.pizdec.net/all-video.php?video=236848.avi -реально!
Вернуться к началу
Посмотреть профиль Отправить личное сообщение Отправить e-mail MSN Messenger
Naj
пионерка


Сообщения: 22

СообщениеДобавлено: Вс Окт 08, 2006 3:23 pm    Заголовок сообщения: Ответить с цитатой

KIRCK писал(а):
Класс! наконецто, кто то что то интересное!
2Naj:
пришли пожалуста в GTP
буду благодарен!


Aerosmith - ...rar
 Описание:

Слить
 Размер:  1.02 Кб
 Закачано:  2100 раз(а)
Вернуться к началу
Посмотреть профиль Отправить личное сообщение Отправить e-mail Посетить сайт автора
Naj
пионерка


Сообщения: 22

СообщениеДобавлено: Вс Окт 08, 2006 3:24 pm    Заголовок сообщения: Ответить с цитатой

Если еще что нибудь надо, могу прислать, у меня полно всегоSmile
Вернуться к началу
Посмотреть профиль Отправить личное сообщение Отправить e-mail Посетить сайт автора
KIRCK
хэммет


Сообщения: 1620

СообщениеДобавлено: Вс Окт 08, 2006 3:26 pm    Заголовок сообщения: Ответить с цитатой

скачал, но еще не смотрел!!
щас гляну!!!

_________________
Старая подпись себя исчерпала, а новую пока не придумал! может кто то что то подскажет?? пишите в личку!
http://www.pizdec.net/all-video.php?video=236848.avi -реально!
Вернуться к началу
Посмотреть профиль Отправить личное сообщение Отправить e-mail MSN Messenger
Kreug
пионер


Сообщения: 15

СообщениеДобавлено: Вт Ноя 21, 2006 8:37 am    Заголовок сообщения: Ответить с цитатой

Привет всем, подскажите что значит. d..r на табах?

-2.jpg
 Описание:
 Размер:  35.6 Кб
 Просмотрено:  2166 раз(а)

-2.jpg


_________________
Гони пока молодой
Вернуться к началу
Посмотреть профиль Отправить личное сообщение
DemonOfTheNight
виртуоз


Сообщения: 317

СообщениеДобавлено: Вт Ноя 21, 2006 8:52 am    Заголовок сообщения: Ответить с цитатой

Naj, спасибо тебе! Респект! Есть еще что-нибудь? Типа Scorpions - Believe in love?
Единственная соляжка, которую я знаю - "Дом на реке" ПИЛОТа Laughing Embarassed А, ну ясен перец еще и начало Smoke on the Water... Smile

6|---0--3--5--0-3--6-5--0--3--5--2-0------------ - Кажись так

_________________
Никто, кроме нас (Девиз ВДВ)

И кто-то говорит мне, что я дьявол,
Кто-то говорит, что я пророк...
Но я не собираюсь спорить с вами:
Я просто играю РОК!
(ПИЛОТ - Рок)
Вернуться к началу
Посмотреть профиль Отправить личное сообщение Посетить сайт автора
MiloS
забанен


Сообщения: 1510

СообщениеДобавлено: Вт Ноя 21, 2006 9:16 am    Заголовок сообщения: Ответить с цитатой

DemonOfTheNight писал(а):

6|---0--3--5--0-3--6-5--0--3--5--2-0------------ - Кажись так

Хм, а тебе не кажется что это играется аккордами, а не просто на одной струне как кузнечик.
И в конце там вместо двойки тройка.

А вообще если кому то надо какое нибудь не слишком быстрое соло, и не слишком экзотической группы, то я могу постаратся написать.

Хотя в инете можно найти все.
Вернуться к началу
Посмотреть профиль Отправить личное сообщение Отправить e-mail Yahoo Messenger
DemonOfTheNight
виртуоз


Сообщения: 317

СообщениеДобавлено: Вт Ноя 21, 2006 1:57 pm    Заголовок сообщения: Ответить с цитатой

MiloS писал(а):
DemonOfTheNight писал(а):

6|---0--3--5--0-3--6-5--0--3--5--2-0------------ - Кажись так

Хм, а тебе не кажется что это играется аккордами, а не просто на одной струне как кузнечик.
И в конце там вместо двойки тройка.


Эээ... Возможно... Но мне показали на одной струне... А аккордами как? Скажи, буду знать Wink

Касательно не слишком быстрого соло - выкладывай! Smile Ибо в нете найти можно не все... А если и можно, то лень Smile

_________________
Никто, кроме нас (Девиз ВДВ)

И кто-то говорит мне, что я дьявол,
Кто-то говорит, что я пророк...
Но я не собираюсь спорить с вами:
Я просто играю РОК!
(ПИЛОТ - Рок)
Вернуться к началу
Посмотреть профиль Отправить личное сообщение Посетить сайт автора
Показать сообщения:   
Начать новую тему   Ответить на тему    Список форумов :::RockBy.Net::: -> Аккорды, табулатуры Часовой пояс: GMT
На страницу 1, 2, 3, 4, 5, 6, 7, 8  След.
Страница 1 из 8

 
Перейти:  
Вы не можете начинать темы
Вы не можете отвечать на сообщения
Вы не можете редактировать свои сообщения
Вы не можете удалять свои сообщения
Вы не можете голосовать в опросах
Вы не можете прикреплять файлы на форуме
Вы можете закачивать файлы на этом форуме


Powered by phpBB © phpBB Group