.  . 
"Surfacing" - Slipknot - :::RockBy.Net:::, , >>> Slipknot >>> Surfacing

"Surfacing"
"Slipknot"

			 Surfacing-Slipknot
Slipknot

Drop B
B F# B E G# C#

Riff A x4 sample arr. for gtr w/ wah

e-20b-(22)------------------20b-(22)----------------------
b---------------------------------------------------------
g---------------------------------------------------------
d----------172017201720---------------172017201720--------
a---------------------------------------------------------
d---------------------------------------------------------

gtr 1 play Riff A x12

gtr 2.

e-----------------------------------------------------------------
b-----------------------------------------------------------------
g-----------------------------------------------------------------
d-----------------------------------------------------------------
a-0-0-1-0---0-1---0-0-1-0---0-1---0-0-1-0---0-1---0-0-1-0---0-1---
d-0-0-1-0---0-1---0-0-1-0---0-1---0-0-1-0---0-1---0-0-1-0---0-1---

both gtrs. x2

e-----------------------------------------------------------------
b-----------------------------------------------------------------
g-----------------------------------------------------------------
d-----------------------------------------------------------------
a-0-0-1-0---0-1---0-0-1-0---0-1---0-0-1-0---0-1---0-0-1-0---0-1---
d-0-0-1-0---0-1---0-0-1-0---0-1---0-0-1-0---0-1---0-0-1-0---0-1---

Fig 1.

e-----------------------------------------------------------------
b-----------------------------------------------------------------
g-----------------------------------------------------------------
d-----------------------------------------------------------------
a-----1-0-----1-------1-0-----1-------1-0-----1-------1-0-----1---
d-0-0-1-0---0-1---0-0-1-0---0-1---0-0-1-0---0-1---0-0-1-0---0-1---

Riff B

e-20b-(22)------------20b-(22)----------------------------
b---------------------------------------------------------
g---------------------------------------------------------
d---------------------------------------------------------
a---------------------------------------------------------
d---------------------------------------------------------

gtr 2

e---------------------------------------------------------
b---------------------------------------------------------
g-7-7-8-7--7-8---(8)b-------------------------------------
d-x-x-x-x--x-x----x---------------------------------------
a-5-5-6-5--5-6---(6)b-------------------------------------
d---------------------------------------------------------

Interlude:

e---------------------------------------------------------
b---------------------------------------------------------
g---------------------------------------------------------
d---------------------------------------------------------
a-------7-6-----------4-3---------------------------------
d-8-7-6-----8-7-6-4-3-----4-3-2-1-------------------------

e---------------------------------------------------------
b---------------------------------------------------------
g---------------------------------------------------------
d-------9-8-----------6-5---------------------------------
a-8-7-6-7-6-8-7-6-4-3-4-3-4-3-2-1-------------------------
d-8-7-6-----8-7-6-4-3-----4-3-2-1-------------------------

Bridge:

e---------------------------------------------------------
b---------------------------------------------------------
g---------------------------------------------------------
d--------10---9-------------------------------------------
a-3---2---8---7---9---8---3---2---------------------------
d-3---2-----------9---8---3---2---------------------------

thats all, just piece it together
for Elrockero56, suck a dick bitch

trevor jones
timmy91199@yahoo.ca

    :
      : !!!
      URL - http://akkordbard.ru/, -
      : -
      URL - http://https://turbinext.prom.ua/, -
0.036850929260254