.  . 
"New Abortion" - Slipknot - :::RockBy.Net:::, , >>> Slipknot >>> New Abortion

"New Abortion"
"Slipknot"

			 slipknot
new abortion


hf=half bend
h=hammer on

intro
--------------------
--------------------
--------------------
--------------------
--------------------
-0-0-0--0-0-0-0-----

riff 1
------------------------------
------------------------------
------------------------------
------------------------------
------------------------------
-0-1-2-0-2-3-0-1-2-0-2-3-0-7-6

----------------------------x/
----------------------------x/
----------------------------x/ after youve played this play 
-----------------------------  riff 1 again 4 times
-0-0-0--0-0-0--0-0-0--0-0-0--



------------------------------
------------------------------
------------------------------
-0-1-2-0-2-3-0-1-2-0-2-3-0-7-6
------------------------------
------------------------------

----------------------------------10-----hf9---
-----------------------hf8--13-----------------
-6--hf6----hf8-----10--------------------------
-----------------------------------------------
-----------------------------------------------
-----------------------------------------------


chorus gtr 1

------------------------------------------------
------------------------------------------------
------------------------------------------------
------------------------------------------------
-6-6-6--5-5-5-5-5-3-0---------------------------
-6-6-6--5-5-5-5-5-3-0-0-0-0-0-0-0-0-0-0-0-------


chorus gtr 2

------------------------------------------------
------------------------------------------------
------------------------------------------------
------------------------------------------------ 
-5--hf5--hf5-----5-hf5--------------------------
---------------0--------------------------------

just gtr 2
------------------------------------------------
------------------------------------------------
------------------------------------------------
------------------------------------------------
------------------------------------------------
-0-0-2-2-2-2-2-0-4-4-4-4-4-0-5-5-5-5-5-5-5------

gtrs 1 and 2
--------------------------------------------------
--------------------------------------------------
--------------------------------------------------
--------------------------------------------------
-2--1--0--2--0--4--5--0--3--2--1--0--2--0--4--0--5
-2--1--0--2--0--4--5--0--3--2--1--0--2--0--4--0--5

-------------------------
-------------------------
-------------------------
-------------------------
3--2--1--0--2--0--4--0--5
3--2--1--0--2--0--4--0--5



-----------------------------------------------------
-----------------------------------------------------
---------------------------------------------------2-
---------------------------------------------------0-
-6-6-6-5-5-5-5-5-3-0-----------------6-6-6-5-5-5-3-0-
-6-6-6-5-5-5-5-5-3-0-0-0-0-0-0-0-0-0-6-6-6-5-5-5-3-0-


--------------------
--------------------
--------------------
--------------------
--------------------
-2-2-1-2-6-5-1-6/--2

------------------------------------------------------
------------------------------------------------------
------------------------------------------------------
-6/h5-5-6/h5-5-6/h5-5-5-5-----------------------------
-6/h5-5-6/h5-5-6/h5-5-5-5-2-2-6-1/7-------------------
-6/h5-5-6/h5-5-6/h5-5-5-5-2-2-6-1/7-------------------

------------------------------------------------------
------------------------------------------------------
------------------------------------------------------
------------------------------------------------------
-2-2-1-2-6-5-1/7-2------------------------------------
-2-2-1-2-6-5-1/7-2------------------------------------

------------------------------------------------------
------------------------------------------------------
------------------------------------------------------
------------------------------------------------------
-2-2-1-6/h5-5-6/h5-5-6/h5-5-5-5-2-2-1-2-6-5-1/7-2-----
-2-2-1-6/h5-5-6/h5-5-6/h5-5-5-5-2-2-1-2-6-5-1/7-2-----

    :
      : !!!
      URL - http://akkordbard.ru/, -
      : -
      URL - http://https://turbinext.prom.ua/, -
0.036599159240723