.  . 
"My Plague" - Slipknot - :::RockBy.Net:::, , >>> Slipknot >>> My Plague

"My Plague"
"Slipknot"

			 slipknot
my plague


 intro/verse 1 distortion
mick and james
--------------------------------------------
--------------------------------------------
--------------------------------------------
-0-0-0-0-0----------------------------------
-0-0-0-0-0----------------------------------
-0-0-0-0-0-1/2-21--------------------------  X8

then into verse 2
-------------------------------------------
-------------------------------------------
-------------------------------------------
-0-0-0-0-----------------------------------
-0-0-0-0--1/2-21--------------------------
-0-0-0-0--1/2-21-------------------------- x11

interlude joey,shawn,Chris

drum bit

verse 2 again!
-------------------------------------------
-------------------------------------------
-------------------------------------------
-0-0-0-0-----------------------------------
-0-0-0-0--1/2-21--------------------------
-0-0-0-0--1/2-21-------------------------- x8

chorus
-----------------------------------------------------------------------
-------------------------20-20-20-20-20-20-20-20-20-20-20-20-20--------
------7---10---12~~-12---x--x--x--x--x--x--x--x--x--x--x--x--x---------
------x---x----x----x----17-17-17-17-17-17-17-17-17-17-17-17-17--21/0--
------5---8----10~~-10-------------------------------------------------
-0--0---0----0---------0-----------------------------------------------


----------------------------------------------------------
----------------------------------------------------------
------7---10---12~~-12------------------------------------
------x---x----x----x-------------------------------------
------5---8----10~~-10---2-2-2-2-2-2-2-2/6-6-6-6-6-6-6-6--
-0--0---0----0---------0-2-2-2-2-2-2-2-2/6-6-6-6-6-6-6-6--

interlude
------------------------------
------------------------------
------------------------------
-----------------3--2---4-----
-------4-3------------2---3---
-0-3-2-------4-3-------------- x4

---------------------------------------
---------------------------------------
---------------------------------------
--------------2-3-2-0--4---------------
---------------------2---3-------------
-0-0-0-3-2-0--------------------------- x12

chorus

then
---------------------|
---------------------|
---------------------|
-0-0-0-0-------------|
-0-0-0-0-1/2-21-----|
-0-0-0-0-1/2-21-----| x12

last riff
----------------------------|
----------------------------|
----------------------------|
----------------------------|
-0-0-0-0--0--0-0-0-1/2-21--|
-0-0-0-0--0--0-0-0-1/2-21--| x4

0utro

mick and james
--------------------------------------------|
--------------------------------------------|
--------------------------------------------|
-0-0-0-0-0----------------------------------|
-0-0-0-0-0----------------------------------|
-0-0-0-0-0-1/2-21--------------------------| x4

end!

intro/verse
verse 2
chorus
verse 2
chorus
interlude(solo)
chorus
verse 2
outro

    :
      : !!!
      URL - http://akkordbard.ru/, -
      : -
      URL - http://https://turbinext.prom.ua/, -
0.04263710975647