.  . 
"Left Behind" - Slipknot - :::RockBy.Net:::, , >>> Slipknot >>> Left Behind

"Left Behind"
"Slipknot"

			    SLIPKNOT       TUNING
  LEFT BEHIND (LOW TO HIGH)B-F#-B-E-G#-C#
     IOWA

  intro Gtr.1
-----------------|----------------|-------------------|
-----------------|----------------|-------------------|
-----------------|----------------|-------------------|
-/----------/--|----------------|---------------/--|
-1-0-0---/--1/6-|-6-----1----/--|-------1---1---1/6-|
-------2-2-1-----|--0-0---2-1-1/6-|-6-0-0---2---------|
                  Gtr1&2       
-----------------|-----------------|------------------|
-----------------|-----------------|------------------|
-----------------|*----------------|-----------------*|
-----------------|-------------/--|------------------|
-6-----1-----/--|*------1-1---1/6-|-6-----1-----/--*|
---0-0---2-1-1/6-|-6-0-0-----2-----|---0-0---2-1-1/6--|

-----------------|
-----------------|
-8-8-8-8-8-8-----|
-x-x-x-x-x-x-----|
-6-6-6-6-6-6-----|
-------------13-|
   Gtr.1     verse
--------------------------------------------------------|
--------------------------------------------------------|
---------------8877-------------------------8877--------|
---------------xxxx-------------------------xxxx--------|
---------------6655-6-6-0-0-1-1-0-0-6-6-0-0-6655-3333-1-|
-1-0-0-6-6-0-0------6-6-0-0-1-1-0-0-6-6-0-0------3333-1-|
   Gtr.2
-----------------|    |--------------|
*---------------*|    |--------------|
-----------------| 3x |--------------|
*---------------*|    |--------------|
-1-0-0-6-6-0-0-1-|    |-1-0-0-3333-1-|
-1-0-0-6-6-0-0-1-|    |-1-0-0-3333-1-|
  Gtr.1  chorus
--------------------------|----------------|---------------|
--------------------------|----------------|-----1010101010|
-3-3--8-8--3-3--8-8--3--8-|-----7-7----7---|-----x-x-x-x-x-|
-x-x--x-x--x-x--x-x--x--x-|-6-6------6---6-|-----7-7-7-7-7-|
-1-1--6-6--1-1--6-6--1--6-|----------------|-6-6-----------|
--------------------------|----------------|---------------|
  Gtr.2
--------------------------|--------------------|
--------------------------|--------------------|
--------------------------|--------------------|
--------------------------|--------------------|
--------------------------|-66666666--11111111-|
-----------------------13|-66666666--11111111-| 

---------------------------------|    |-----------|
---------------------------------|    |-----------|
---------------------------------| 2x |-888888----|
-------------/------------------|    |-xxxxxx----|
-------1-1---1/6-6-----1-----/--|    |-666666----|
-6-0-0-----2-------0-0---2-1-1/6-|    |--------13|

verse 

chorus

  interlude  Gtr.1
---------
-11------
-x-------w/delay (next 24 meas.)
-8-------
---------
--------- 
  Gtr.2
---------------------------------------|
---------------------------------------|
---------------------------------------|
---------------------------------------|
-111111-666666-111111-666666-1111-6666-|
---------------------------------------|
p.m. ---------------------------------

--------------------------------------------------|
--------------------------------------------------|
--------------------------------------------------|
--------------------------------------------------|
--------------------------------------------------|
-6666666666666663-1-1-1-1-1-1-1-1-1-1-1-1-1-1-1-1-|
p.m.---------------------------------------------

Gtr.1                 ^^^^^^^^^^^^^^^^^ let ring---------
--------------------------------------------0---0---0----0-|
------------11-11-11--11-11-11-11-11-11-0-----0---0----0---|
-8---------------------------------------------------------|
-8---------------------------------------------------------|
-----------------------------------------------------------|
-----------------------------------------------------------|
                     
 let ring------      let ring----------
----------------------/--------------------------------|
--11--------------16--17----16-16--16---16--16-16-(16)-|
-------------------------13-------------x---x--x--(--)--|
-------8------/13-----------------------13--13-13-(13)-|
--------------------------------------------------------|
--------------------------------------------------------|
 Take     this              a    -    way.____

-------------------------------------------|
-11------11/--16--17---16--16-16-16-16-16--|
-x-------x---------------------------------|
-8-------8/13------------------------------|
-------------------------------------------|
-------------------------------------------| 
Take    this            a        -      
           way._________________
-------------------------------|
-16--16-16-16--16--1616161616-|
-------------------x-x-x-x-x---|
-------------------1313131313-|
-------------------------------|
-------------------------------|
____  I can feel it on my mouth   I can taste you on my fin-
----------------------------------------------------------  
-11-----12----------11--------17-16--------16------16-----
-x-------x----------x----------x--------------------x-----
-8-------9----------8---------14------13-----------13-----
----------------------------------------------------------
----------------------------------------------------------
-gers  I can hear you like the  ho - ly ghost__ and
-------------------------------------------------------|
-11-----12--------11-------------16--16-16-16-16-16-16-|
-x------x---------x--------------13--13-13-13-13-13-13-|
-8------9---------8------------------------------------|
-------------------------------------------------------|
-------------------------------------------------------|
kill you if you get to close!     Yeah! As I close
--------------------------------------------------|
--------------------------------------------------|
--------------------------------------------------|
--------------------------------------------------|
-----------------------1---6---1---6---1--1--6--6-|
-x^^^^^^^^^^^^^^^------1---6---1---6---1--1--6--6-|

  chorus
Gtr.1
--------------------------|----------------|---------------|
--------------------------|----------------|----1010101010/|
-3-3--8-8--3-3--8-8--3--8-|-----7-7----7---|-----x-x-x-x-x-|
-x-x--x-x--x-x--x-x--x--x-|-6-6------6---6-|-----7-7-7-7-7/|
-1-1--6-6--1-1--6-6--1--6-|----------------|-6-6-----------|
--------------------------|----------------|---------------|
Gtr.2
--------------------------|--------------------|
--------------------------|--------------------|
--------------------------|--------------------|
--------------------------|--------------------|
--------------------------|-66666666--11111111-|
-----------------------13/|-66666666--11111111-|

--------------------------------------------------|
--------------------------------------------------|
--------------------------------------------------|
------------------------------/------------------|
-6-----1-/--/---------1-1---1/6-6-----1-----/--|
---0-0---2-1-1/6--6-0-0-----2-------0-0---2-1-1/6-|
      Uh, we let it all slip a - way________________
-------------------------------|--------------------
-------------------------------|*-------------------
--------------_----------------|-----------------_--
-------------/----------------|--------3-------/--
-------1-1---1/6-6-----1-------|*-6-----1--2--1-1/8-
-6-0-0-----2-------0-0---2-1-1-|--6-0-0----2--1-1/6-
___                      Uh,   we let it  all  slip a -
---------------------------------------------------------|
----------------------------------_---------------------*|
----------------_----------------/------------------_---|
-8-----3-------/---------3-3----3/8---------3------/---|
-6-----1--2--1-1/6--6-0-0-1-1----1/6--8-0-0--1-2--1-1/6-*|
---0-0----2--1-1/6--6-0-0------2------6-0-0----2--1-1/6--|
outro Gtr.1    
 Half-time Feel         We let it all slip a - way     
--------------------------------------|----------------
----------------_---------------------|*---------------
---------------/------------------_--|----------------
-6-----3--3----3/8--8-----3-------/--|------------_---
-6-----1--1----1/6--6-----1--2--1-1/6-|*----------/---
---0-0-------2--------0-0----2--1-1/6-|--6-0----1-1/6--
                         We it all slip a-way! 
-----------------------------------------------|
----------------------------------------------*|
-----------------------------------------------|
------------_-------------_----------------_---|
-----------/------------/---------------/--*|
-6-0----1--1/6--6-0---1--1/6---6--0----1--1/6--|
    
    Gtr.2
------------------------------------|-----------------------
---------------_--------------------|*----------------------
--------------/-----------------_--|-----------------------
-------3-3----3/8--8-----3------/--|-----------------------
-6-----1-1----1/6--6-----1-2--1-1/6-|*-6--0-----(0)---------
---0-0------2--------0-0---2--1-1/6-|--6--0-----(0)---------

---------------------------------|
--------------------------------*|
---------------------------------|
-----------------------------_---|
----------------------------/--*|
-------------------------1--1/6--|

-----------------------------------------------------|
-----------------------------------------------------|
-----------------------------------------------------|
-------------_---------------_---------------_-------|
------------/--------------/--------------/-------|
-6-0-----1--1/6--6-0-----1--1/6--6-0-----1--1/6--6-0-|

-----------------------------------------------------|
-----------------------------------------------------|
-----------------------------------------------------|
-----------------------------------------------------|
--6--------------------------------------------------|
--6--0-----------------------------------------------|

          
                     THE  END

    :
      : !!!
      URL - http://akkordbard.ru/, -
      : -
      URL - http://https://turbinext.prom.ua/, -
0.044475078582764