.  . 
"Wait And Bleed" - Slipknot - :::RockBy.Net:::, , >>> Slipknot >>> Wait And Bleed

"Wait And Bleed"
"Slipknot"

			 Slipknot-Wait and Bleed
Tabbed by my bass guitar instructor
Retabbed to computer By me Chris Doyle
E-Mail-- Slipknot08@Skaters.org

Intro
I felt the hate rise up in me....

G-------------------------------------------------------------------
D-------------------------------------------------------------------
A---------------------9----------------------10--------------------
E---------7-----------------------8---------------------------------
Figure out how many times you have to repeat

G-------------------------------------------------------------------
D-------------------------------------------------------------------
A-------------------------------------------------------------------
E----------8--8-----7---------8--8----7---------------------------

Verse
G-------------------------------------------------------------------
D-------------------------------------------------------------------
A-------------------------------------------------7-----------------
E----------8--8----7----------8--8----7----8--------8------------

Chourus
G-------------------------------------------------------------------
D-------------------------------------------------------------------
A-----------------9--------------10--------------------------------
E----------7-------------8-----------------8-----------------------

Intro to verse 2
G-------------------------------------------------------------------
D-------------------------------------------------------------------
A----------------------------------------7--------------------------
E------8--8----7------8--8----7--8----------8--------------------

Verse 2
G-------------------------------------------------------------------
D-------------------------------------------------------------------
A----------------------------------------7--------------------------
E------8--8----7------8--8----7--8----------8--------------------

Chorus

You havn't learned a thing, I haven't changed a thing.....
G-------------------------------------------------------------------
D-------------------------------------------------------------------
A---------------------------------------------------------------9---
E------8--8----7-----8--8----7----8--8----7----8--8----7--------

Chourus after You havn't learned a thing.....
G-------------------------------------------------------------------
D-------------------------------------------------------------------
A---------------------------------------------------------------9---
E------8--8----7-----8--8----7----8--8----7----8--8----7--------

And it waits for you
G--------------------------------------------------------------------
D--------------------------------------------------------------------
A----------------------------------------7---------------------------
E---------8--8----7----8--8----7--8--------8-----8--8----7-------

This song is very fast so you will have to get the hang of it 
before you actually start playing with the CD.

    :
      : !!!
      URL - http://akkordbard.ru/, -
0.036810874938965