.  . 
"The Virus Of Life" - Slipknot - :::RockBy.Net:::, , >>> Slipknot >>> The Virus Of Life

"The Virus Of Life"
"Slipknot"

			 slipknot
The Virus Of Life
Vol 3.(The Subliminal Verses)
tabbed by modus operandi
jamie cushion
5 string B E A D G

Intro:
----------------|
----------------|
----------------|
----------------|
--0-3-2-0--3-0--|

Riff 1
-------------|
-------------|
-------------|
-------------|
--0-0-3-2-0--|

riff 2:
------------------------------------------------------------------|
------------------------------------------------------------------|
------------------------------------------------------------------|
------------------------------------------------------------------|
--111-1-1-1-1-1-1-1-1-1-1-1-1-1-1-333-0-0-0-0-0-0-0-0-0-0-0-0-0-0-|

riff 3
-------------------------------------------------------------------------|
-------------------------------------------------------------------------|
-------------------------------------------------------------------------|
-------7b----------------5b----------------------------------------------|
-2-1-0----1-0-3b---2-1-0-----1-0-3b---2-1-0-5---1-0-3b---2-1-0-3---1-03b-|

riff 4:
-------------------------------------|
-------------------------------------|
-------------------------------------|
-----------------------------7-6-5-0-|
--0-2-1-0-3-3-0-4-4-5-1-1-1----------|

Riff 5:
-------------------|
-------------------|
-------------------|
-------------------|
--0-0-3-2-0--0--0--|

order:
intro
riff 1
riff 2
riff 3
break 
riff 2
riff 3
riff 2
riff 4
riff 5
riff 3
riff 4

    :
      : !!!
      URL - http://akkordbard.ru/, -
0.036432027816772