.  . 
"The Nameless" - Slipknot - :::RockBy.Net:::, , >>> Slipknot >>> The Nameless

"The Nameless"
"Slipknot"

			 Slipknot
The Nameless
Vol. 3 (The Subliminal Verses) 
tabbed by modus operendi
jamie cushion



Riff 1 (Intro/Verse 1/):
|-----------------------------------|
|-----------------------------------|
|-----------------------------------|
|-----------------------------------|
|-2-2--3-3-3-3-2-2-0-0--2-2-2-2-2-2-|

--------------------------------------------------|
--------------------------------------------------|
--------------------------------------------------|
--------------------------------------------------|
-2-2--3-3-3-3-2-2-1-1-1-1-1-1-1-1-1-1-1-1-1-1-1-1-|
  
Riff 2:
|----------------------------------|
|----------------------------------|
|----------------------------------|
|-2--------------------------------|
|---3-0-2-0-0-0-0-0-0-6-5-6-5------|

Riff 3:
|---------------------------------------------------------------------|
|---------------------------------------------------------------------|
|---------------------------------------------------------------------|
|---------------------------------------------------------------------|
|-2-1h2p1-2h3p2-3h4p3-4h5p4-3h4p3-4h5p4-2-----------0-----------------|
|-----------------------------------------3-0-2-0-----3-2-0-2-0-2-3-2-|

Riff 4: AND Riff 5: is guitar only chorus

Riff 6 (Pre-Verse 2):
|-----------------------------------|
|-----------------------------------|
|-----------------------------------|
|-----------------------------------|
|-2-2--3-3-3-3-2-2-0-0--2-2-2-2-2-2-|

Riff 7 (Verse 2):
|-----------------------------------|
|-----------------------------------|
|-----------------------------------|
|-----------------------------------|
|-0-0-1-1-1-1-0-0--0-0--0-0-0-0-0-0-|

-----------------------------------------------|
-----------------------------------------------|
-----------------------------------------------|
-----------------------------------------------|
-0-0-1-1-1-1-0-0--0-0--1-1-1-1-1-1-1-1-1-1-1-1-|
   
Riff 9:   
|-------------------------------------|
|-------------------------------------|
|-------------------------------------|
|-2-------------2-------------2-3-----|
|---3-0-2-0h2p0---3-0-2-0h2p0-----3-2-|

--------------------------------------|
--------------------------------------|
--------------------------------------|
-2-------------2------------2---------|
---3-0-2-0h2p0---3-0-2-0h2p0---5-3-2--|

Riff 10:
|---------------------------
|---------------------------
|---------------------------
|-2-------4-----------------
|---3-2-3---3-2-3--0--0--0--

 Riff 2:
|----------------------------------|
|----------------------------------|
|----------------------------------|
|----------------------------------|
|-0---3---0---8---7---0---3---6----|

------------------------------------------------|
------------------------------------------------|
------------------------------------------------|
------------------------------------------------|
-0---3---0---88888888--7---0---3---6(6666666)---|

    :
      : !!!
      URL - http://akkordbard.ru/, -
0.049313068389893