.  . 
"The Blister Exists" - Slipknot - :::RockBy.Net:::, , >>> Slipknot >>> The Blister Exists

"The Blister Exists"
"Slipknot"

			 Slipknot
The Blister Exists
Vol. 3 (The Subliminal Verses) 
tabbed by modus operendi
jamie cushion

      
Riff 1a:
|----------------------------------------------|
|----------------------------------------------|
|----------------------------------------------|
|----------------------------------------------|
|-3-1-0-x-0---13b-0--x-0-13b-0--x-0-13b-0--x-0-|

Riff 1b:
|----------------------------------------------|
|----------------------------------------------|
|----------------------------------------------|
|----------------------------------------------|   
|-13b-0-x-0---13b-0--x-0-13b-0--x-0-13b-0--x-0-|

Riff 2:
|-----------|
|-----------|
|-----------|
|-----------|
|-13b-0-x-0-|

Riff 3: ("One, two, THREE!")
|-------------------------------------|
|-------------------------------------|
|-----------------------------------1-|
|-------------------------------------|
|-0--x-0--1-1-1-1-1-1--0--x-0--0--1---|

Riff 4: ("DROP IT!")
|--------------|
|--------------|
|--------------|
|--------------|
|-0--x-1-3h4p3-|

Riff 5:
|---------10tp---10h11p10------|---------10tp-----------------7h9h10p9p7--------|
|-------------------------11p9-|-----------------------7h9h10------------10p9p7-|
|-8tp-7tp----------------------|-8tp-7tp--------7h8h10--------------------------|
|------------------------------|------------------------------------------------|
|------------------------------|------------------------------------------------|
|------------------------------|------------------------------------------------|

Riff 6: (w/ wah)
|---------------------------------------------|
|-/10----8------------------------------------|
|-------------5p0-5p0-5p0-5p0-7p0-7p0-7p0-7p0--|
|---------------------------------------------|
|---------------------------------------------|
|---------------------------------------------|

Riff 7:
|--------------------------|
|--------------------------|
|--------------------------|
|--------------------------|
|-2--3-0--6p0-6p0-3--3-3-5-|

Riff 8:
|------------------------|
|------------------------|
|------------------------|
|------------------------|
|-2--0--6p0-6p0-3--3-3-5-|

Riff 9:
|---------|
|---------|
|---------|
|---------|
|-1b----0-|

Riff 10:
|---------|-------------|-----------------------------------|
|---------|-------------|-----------------------------------|
|---------|-------------|-----------------------------------|
|---------|-------------|-----------------------------------|
|-1b----0-|-------------|-1-0-0-1-0-0-1-0-0-0--0-0-0--0-----|

Riff 11:
|------------------------|
|------------------------|
|------------------------|
|------------------------|
|-2--3-0--6p0-6p0-3--3-3-|

this is not the correct order you figure it out

    :
      : !!!
      URL - http://akkordbard.ru/, -
0.076373815536499