.  . 
"Only One" - Slipknot - :::RockBy.Net:::, , >>> Slipknot >>> Only One

"Only One"
"Slipknot"

			 Mxtabs [http://www.mxtabs.net]
Song: Only One
Band : Slipknot
tabbed by modus operendi
jamie cushion

riff 1
d-------------------------|
a-------------------------|
e-------------------2-----|
b-0-8-7-3-0-8-2-1-1---1---|

Riff 2
d-------------------------|
a-------------------------|
e-------------------------|
b-0-7-6-0-0-5-4-3-0-1-0---|

Riff 4
d-------------------------|
a-------------------------|
e-------------------------|
b-0-0-0-5-6---------------|

Riff 4
d--------------------------------------|
a--------------------------------------|
e-------7-5-----7-5-----7-5------------|
b-0-0-0-----0-0-----0-0-----0/1/2/3/4/5|

Riff 5
d---------------------------|
a---------------------------|
e---------------------------|
b-2-1-0-0-4-3-0-0-----------|

    :
      : !!!
      URL - http://akkordbard.ru/, -
      : -
      URL - http://https://turbinext.prom.ua/, -
0.035606145858765