.  . 
"No Life" - Slipknot - :::RockBy.Net:::, , >>> Slipknot >>> No Life

"No Life"
"Slipknot"

			 slipknot
no life
tabbed by modus operendi
jamie cushion

INTRO
G)----------------------------------|
D)----------------------------------|
A)----------------------------------|
E)----------------------------------|
B)------5-6-7-8-9-5---5-6-7-8-9-4---|

VERSE
------------------------------------|
------------------------------------|
------------------------------------|
------------------------------------|
-000-3-00-5-000-1-00----------------|

CHORUS
------------------------------------|
------------------------------------|
------------------------------------|
------------------------------------|
3-2-4-3------3-2-4-3----------------|

AFTER CHORUS
------------------------------------|
------------------------------------|
------------------------------------|
------------------------------------|
-2345---2345------------------------|

FILL
-------------------------------------------------|
-------------------------------------------------|
-------------------------------------------------|
-------------------------------------------------|
333-0-0-0---4-4-4-1-1-1-3-3-3-0-0-0--4-4-4-1-1-1-|

AFTER FILL
------------------------------------|
------------------------------------|
------------------------------------|
------------------------------------|
000-0000-000-00000-0000-------------|

OUTRO
------------------------------------|
------------------------------------|
------------------------------------|
------------------------------------|
3243-3243-3243-3243-3243-3243-------|

    :
      : !!!
      URL - http://akkordbard.ru/, -
0.035643100738525