.  . 
"Left Behind" - Slipknot - :::RockBy.Net:::, , >>> Slipknot >>> Left Behind

"Left Behind"
"Slipknot"

			 Mxtabs [http://www.mxtabs.net]
Song: left behind
Band : Slipknot
tabbed by modus operendi
jamie cushion

Intro
D--------------    D---------------|
A-------------- x7 A---------------|
E--------------    E---------------|
B-0-0---0-0-0--    B-0/12-12-12-12-|

Verse
D-------------------------------|
A--------3--------------3-------|x4
E----2-------2------2-------23--|
B-100-000-000-000100-000-000----|

Chorus
D-----------------------------------------------------|
A------------------------------------33----33---3-----| x4
E-1-1-1-1-1-1-1-1-----------------33----33----33------|
B-----------------1-1-1-1-1-1-1-1---------------------|

Intro after chorus

Verse again

Pre-chorus
D--------------------|
A----33----33---3----|
E-33----33----33-----|
B--------------------|

Chorus

Interlude
D--------------------------------------|
A----33----33----3---------------------|
E-33----33----33---11111111------------|
B---------------------------11111111---|

Pre-chorus again
Chorus again
Intro again
End

    :
      : !!!
      URL - http://akkordbard.ru/, -
      : -
      URL - http://https://turbinext.prom.ua/, -
0.038609981536865