.  . 
"I Am Hated" - Slipknot - :::RockBy.Net:::, , >>> Slipknot >>> I Am Hated

"I Am Hated"
"Slipknot"

			 Mxtabs [http://www.mxtabs.net]
Song: i am hated
Band : Slipknot
tabbed by modus operendi
jamie cushion

INTRO
D|----------------------------------------------|   X1
A|----------------------------------------------|
E|----------0--1------------0--1------------0-1-|
B|-3-2-0------------3-2-0-----------3-2-0-------|

VERSE
D|------------------------|----------------------|  X8
A|------------------------|----------------------|
E|-----11-12-------14-12--|-----11-12------14-12-|
B|-12------------12-------|-12------------12-----|

CHORUS
D|---------------------------| X8
A|---------------------------|
E|---------------------------|
B|-3-2-0---6-5--0--0-0--6-5--|

VERSE X4
CHORUS X8

INTERLUDE
D|----------------|  X4
A|----------------|
E|------------1---|
B|-3-1-0^---3---0-|

D|----------------------------|   X10
A|----------------------------|
E|----------------------------|
B|-3-2-0----5-6---3-2-0---5-6-|

D|-----|
A|-----|
E|-----|
B|-000-|

D|---------|
A|---------|
E|---------|
B|--0-6-0--|                                                          

CHORUS
D|-----------------------------| X10
A|-----------------------------|
E|-----------------------------|
B|-3-2-0---6-5--0--0-0--6-5-(0)-|

    :
      : !!!
      URL - http://akkordbard.ru/, -
0.087367057800293