.  . 
"Get This" - Slipknot - :::RockBy.Net:::, , >>> Slipknot >>> Get This

"Get This"
"Slipknot"

			 Slipknot Get This

(Tune Down 5 Halfsteps)            B=bend        /=slide

Riff 1

A------------------------------------------
E-0-1-4-0-1-4-0-1-4-0-1-4-0-1-4-0-1-4-0---

Riff 2

A------5------------5-----------
E-444---50------444--50-------

Riff 3

A-------------------------33332222----
E-000011114444333344445555------------------

Riff 4

A-----444455554444----444455554444-----
E---4B--------------4B-----------

Riff 5

A---------------------------------
E-000/4---000/4---000/4---

Riff 6

A----------55-----------------55--------------
E-44444444---550000--44444444---550000----

    :
      : !!!
      URL - http://akkordbard.ru/, -
      : -
      URL - http://https://turbinext.prom.ua/, -
0.035534858703613