.  . 
"Gently" - Slipknot - :::RockBy.Net:::, , >>> Slipknot >>> Gently

"Gently"
"Slipknot"

			 Gently-Bass

4 string bass tuned Drop D down 1 steps
Low to high- B,F#,b,E

Intro A-
E  --------------------------------------------|
b  -0---0-2-3----3-----------------------------|
F# --------------------0---0-0--------0--------|
B  --------------------------------------------|

Intro B-
----------------------------------------------|
--0---------3---------------------------------|
-------------------------3-------1---3--------|
----------------------------------------------|


Intro C-
----------------------------------------------|
--0-0-0--0----3--3--3---2-2---2--2-2----------|
------------0--0--0--0------0--0------0-------|
----------------------------------------------|

Heavy Part A-
----------------------------------------------2---2----------------|
-------------------------------------------------------------------|
-------------------1--1-1-1--1-1-1^0--0-0--0----0---0-0---0--------|
--0--0-0-0--0-0----------------------------------------------------|

Heavy Part B-
------------------------------------------------2--------|
---------------------------------------------------------|
-------------------1--1-1-1--1-1-1^0--0-0-0--0-0--0-0----|
--0--0-0-0--0-0------------------------------------------|

-----------------------------------------------------------|
----------------------------------------2^0----------------|
--------------------2---3--------0-----------0^1-----------|
--1--1-1-1--1-1--------------5-3-------------------1-------|

Pre-Verse-
-------------------------------------------------------|
--0--0-0-0--0-0--3--3-3-3--3-3--2--2-2--2-2-2---(X2)---|
-------------------------------------------------------|
-------------------------------------------------------|

b ?3--3-3-3--3-3--7--7-7-7--7-7-7--5--5-5--5-5-------

b -5-/-7--7-7-7--7-7--10--10-10-10--10-10-10--9--9-9-9--9-9--9-9?
Verse-
Same as Intro C

Chorus & Post-Chorus-
Same as Heavy Part B

Intro to Quicker Part-
--2-2-2-2----2-2-2-------------------|
--0-0-0-0----0-0-0-------------------|
-------------------------------------|
-------------------0------0-0-0-0----|

Quicker Part A-
-----------------------------------|
-----------------------------------|
-----------------------------------|
--0-1-0-3----0-4-3-1----0-0-0------|

Quicker Part B-
---------------------------------------------|
---------------------------------------------|
---------------------------------------------|
--0-1-0-3---0-1-0-3---0-1-0-3---0-1-0-3------|

Fill-
B --3-4-3-1------

Song Structure-

Intro A (X4)
Intro B (X4)
Intro C (X4)
Heavy Part A (X2)
Heavy Part B (X2)
Pre-Verse (X1)
Verse (X3)
Chorus/Post-Chorus (X2)
Intro to Quicker Part (X1)
Quicker Part A (X8)
Quicker Part B (X2)
Fill (X1)
Quicker Part A (X12)

    :
      : !!!
      URL - http://akkordbard.ru/, -
      : -
      URL - http://https://turbinext.prom.ua/, -
0.037709951400757