.  . 
"Eyeless" - Slipknot - :::RockBy.Net:::, , >>> Slipknot >>> Eyeless

"Eyeless"
"Slipknot"

			 
 Song: Eyeless
Artist: Slipknot
Tabbed By: Mark Valencia (corrected by Josh Wells)
(In the intro Mark had it tuned to B,F#,A,D,G. The 4th note of the song is a G, so why tune
 to F# and play it 1st fret, when you can stay standard and play
 it on 3, its just unnecessary re-tuning.)

Tuning: (B,E,A,D,G)

Intro:

G||--------------------------||
D||--------------------------||
A||--------------------------||
E||-------3------------------||
B||-0-0-1---0-1-0-0-1-0-0-1--||

Chorus:

G||---------------------------||
D||---------------------------||
A||---------------------------||
E||---------------------------||
B||-0-0-1-3-0-1-0-0-1-0-0-1---||

Verse:

G||----------------||
D||----------------||
A||----------------||
E||----------------||
B||-0-0-1-3-0-0-1--||

Fill:

G||-------------------------||
D||-------------------------||
A||-------------------------||
E||-------------------------||
B||-99-8-99-7-99-8-99-8-99--||

Break:

G||----------------------||
D||----------------------||
A||----------------------||
E||----------------------||
B||-0-0-0-6/0-0-1-0-0-1--||

Break 2:

G||----------||
D||----------||
A||----------||
E||---1------||
B||-0---3-4--||

(I changed "Break 2" to:
E||---1------||               E||----------||
B||-0---3-4--||  instead of   B||-0-6-3-4--||  
Its just easier to play this way.)

Other than that, Great job Mark!

    :
      : !!!
      URL - http://akkordbard.ru/, -
      : -
      URL - http://https://turbinext.prom.ua/, -
0.045657157897949