.  . 
"Duality" - Slipknot - :::RockBy.Net:::, , >>> Slipknot >>> Duality

"Duality"
"Slipknot"

			 artist: slipknot
song: duality
album: vol.3 (The Subliminal Verses)
Tabbed by ;jamie cushion
jamienewambitionbassist
5 string Tuning=B,E,A,D,G
*=harmonic
b=bend
/=slide up
-slide down
>=strum note no. of times
~=let note ring

INTRO
|-----------------------| 
|-----------------------|
|--2~~~~~~5~~~~~~8~~~3--|
|-----------------------|
|-----------------------|

|----------------------------------------------|      
|----------------------------------------------|
|----------------------------------------------| 
|----------------------------------------------|
|-0-0-0-0-0-0-0-0-/-3-3-3-3-3-3-3-61-1-3-1-0--|  

PRE VERSE
|----------------------------------|
|----------------------------------|
|----------------------------------|
|------------------------------5*b-|
|-0-0-0---0-0---0-0-0--0-1-0-3-----|

|-----------------------------------|
|-----------------------------------|
|-----------------------------------|
|----------------------------5------|
|-0-0-0---0-0---0-0-0--0-1-0----3*b-|  

VERSE
|-----------------------------| 
|-----------------------------| 
|-----------------------------|  
|-----------------------------|  
|-7>>10---5---7---3---5---1-0-|

PRE CHORUS
|-----------------------------------|
|-----------------------------------|
|-----------------------------------|
|-----------------------------------|
|-3-3-3-3--3-3-3-3--3-3-3-3--2-2-3--|

CHORUS
|----------------------------------------------|      
|----------------------------------------------|
|----------------------------------------------| 
|----------------------------------------------|
|-0-0-0-0-0-0-0-0-/ 3-3-3-3-3-3-3-61-1-3-1-0--|  

CHORUS END
|--------------------| 
|--------------------| 
|--------------------|  
|--------------------|  
|-12///3--5---1-0----|

VERSE
|-----------------------------| 
|-----------------------------| 
|-----------------------------|  
|-----------------------------|  
|-7>>10---5---7---3---5---1-0-|

PRE CHORUS
|-----------------------------------|
|-----------------------------------|
|-----------------------------------|
|-----------------------------------|
|-3-3-3-3--3-3-3-3--3-3-3-3--2-2-3--|

CHORUS
|---------------------------------------------|
|---------------------------------------------|
|---------------------------------------------|
|---------------------------------------------|
|-0-0-0-0-0-0-0-0-/-3-3-3-3-3-3-3-61-1-3-1-0-|

|---------------------------------------| 
|---------------------------------------|
|-7--7-7-7--10-10-12-12-14-14-14-15-14b-| 
|---------------------------------------|

BRIDGE RIFF 1
|----------------------------------|
|----------------------------------|
|----------------------------------|
|------------------------------5*b-|
|-0-0-0---0-0---0-0-0--0-1-0-3-----|

|-----------------------------------|
|-----------------------------------|
|-----------------------------------|
|----------------------------5------|
|-0-0-0---0-0---0-0-0--0-1-0----3*b-|  

BRIDGE RIFF 2
|----------------------------------|
|----------------------------------|
|----------------------------------|
|------------------------------5*b-|
|-1-1-1---1-1---1-1-1--1-0-1-0-----|

|-----------------------------------|
|-----------------------------------|
|-----------------------------------|
|----------------------------5------|
|-0-0-0---0-0---0-0-0--0-1-0----3*b-|  

BRIDGE RIFF 3
|----------------------------------|
|----------------------------------|
|----------------------------------|
|----------------------------------|
|-3-3-3-3--3-3-3-3--3-3-3-3--2-2-3-|

BRIDGE END
|--------------------------|  
|--------------------------|  
|--------------------------|  
|--------------------------|  
|-0-3-2-3-5-3-7-10-5-7-3-5-|

CHORUS
|---------------------------------------------|
|---------------------------------------------|
|---------------------------------------------|
|---------------------------------------------|
|-0-0-0-0-0-0-0-0-/-3-3-3-3-3-3-3-61-1-3-1-0-|

|---------------------------------------| 
|---------------------------------------|
|-7--7-7-7--10-10-12-12-14-14-14-15-14b-| 
|---------------------------------------|

END RIFF 1
|----------------------------------|
|----------------------------------|
|----------------------------------|
|------------------------------5*b-|
|-0-0-0---0-0---0-0-0--0-1-0-3-----|

|-----------------------------------|
|-----------------------------------|
|-----------------------------------|
|----------------------------5------|
|-0-0-0---0-0---0-0-0--0-1-0----3*b-|

    :
      : !!!
      URL - http://akkordbard.ru/, -
0.039441108703613